AbMaj7

Chords

01234567891011121314151617181920212223
E
B
G
D
A
E
B
0 1 2 3 4 5 6 7 8 9 10 11 12 13 14 15 16 17 18 19 20 21 22 23
(/) Slide Up  (\) Slide Down  (h) Hammer On  (p) Pull Off  (b) Bend (r) Release (v) Vibrato

Stave 1:

E|-----|--
B|--4--|--
G|--5--|--
D|--5--|--
A|-----|--
E|--4--|--

Stave 2:

E|-----------------------3--4--3-----------------------|--
B|--------------------4-----------4--------------------|--
G|-----------------5-----------------5-----------------|--
D|-----------5--6-----------------------6--5-----------|--
A|-----3--6-----------------------------------6--3-----|--
E|--4-----------------------------------------------4--|--

Stave 3:

E|--8--|--
B|--8--|--
G|--8--|--
D|--6--|--
A|-----|--
E|-----|--

Stave 4:

E|--------------------------8--------------------------|--
B|--------------------8--9-----9--8--------------------|--
G|--------------5--8-----------------8--5--------------|--
D|--------5--6-----------------------------6--5--------|--
A|-----6-----------------------------------------6-----|--
E|--8-----------------------------------------------8--|--

Stave 5:

E|--8---|--
B|--8---|--
G|--8---|--
D|--10--|--
A|--11--|--
E|------|--

Stave 6:

E|------------------------------8--11--8------------------------------|--
B|------------------------8--9------------9--8------------------------|--
G|---------------------8------------------------8---------------------|--
D|-----------------10------------------------------10-----------------|--
A|---------10--11--------------------------------------11--10---------|--
E|--8--11------------------------------------------------------11--8--|--

Stave 7:

E|--11--|--
B|--13--|--
G|--12--|--
D|--13--|--
A|--11--|--
E|------|--

Stave 8:

E|----------------------------------11----------------------------------|--
B|------------------------------13------13------------------------------|--
G|----------------------12--13--------------13--12----------------------|--
D|--------------10--13------------------------------13--10--------------|--
A|------10--11----------------------------------------------11--10------|--
E|--11--------------------------------------------------------------11--|--

Stave 9:

E|--15--|--
B|--13--|--
G|--13--|--
D|--13--|--
A|------|--
E|--16--|--

Stave 10:

E|------------------------------15--16--15------------------------------|--
B|----------------------13--16--------------16--13----------------------|--
G|--------------12--13------------------------------13--12--------------|--
D|----------13----------------------------------------------13----------|--
A|------15------------------------------------------------------15------|--
E|--16--------------------------------------------------------------16--|--

							http://www.guitartabcreator.com
Instruments
{"strings":[[[".","|"],[4,"|"],[5,"|"],[5,"|"],[".","|"],[4,"|"]],[[".",".",".",".",".",".",".",3,4,3,".",".",".",".",".",".",".","|"],[".",".",".",".",".",".",4,".",".",".",4,".",".",".",".",".",".","|"],[".",".",".",".",".",5,".",".",".",".",".",5,".",".",".",".",".","|"],[".",".",".",5,6,".",".",".",".",".",".",".",6,5,".",".",".","|"],[".",3,6,".",".",".",".",".",".",".",".",".",".",".",6,3,".","|"],[4,".",".",".",".",".",".",".",".",".",".",".",".",".",".",".",4,"|"]],[[8,"|"],[8,"|"],[8,"|"],[6,"|"],[".","|"],[".","|"]],[[".",".",".",".",".",".",".",".",8,".",".",".",".",".",".",".",".","|"],[".",".",".",".",".",".",8,9,".",9,8,".",".",".",".",".",".","|"],[".",".",".",".",5,8,".",".",".",".",".",8,5,".",".",".",".","|"],[".",".",5,6,".",".",".",".",".",".",".",".",".",6,5,".",".","|"],[".",6,".",".",".",".",".",".",".",".",".",".",".",".",".",6,".","|"],[8,".",".",".",".",".",".",".",".",".",".",".",".",".",".",".",8,"|"]],[[8,"|"],[8,"|"],[8,"|"],[10,"|"],[11,"|"],[".","|"]],[[".",".",".",".",".",".",".",".",8,11,8,".",".",".",".",".",".",".",".","|"],[".",".",".",".",".",".",8,9,".",".",".",9,8,".",".",".",".",".",".","|"],[".",".",".",".",".",8,".",".",".",".",".",".",".",8,".",".",".",".",".","|"],[".",".",".",".",10,".",".",".",".",".",".",".",".",".",10,".",".",".",".","|"],[".",".",10,11,".",".",".",".",".",".",".",".",".",".",".",11,10,".",".","|"],[8,11,".",".",".",".",".",".",".",".",".",".",".",".",".",".",".",11,8,"|"]],[[11,"|"],[13,"|"],[12,"|"],[13,"|"],[11,"|"],[".","|"]],[[".",".",".",".",".",".",".",".",11,".",".",".",".",".",".",".",".","|"],[".",".",".",".",".",".",".",13,".",13,".",".",".",".",".",".",".","|"],[".",".",".",".",".",12,13,".",".",".",13,12,".",".",".",".",".","|"],[".",".",".",10,13,".",".",".",".",".",".",".",13,10,".",".",".","|"],[".",10,11,".",".",".",".",".",".",".",".",".",".",".",11,10,".","|"],[11,".",".",".",".",".",".",".",".",".",".",".",".",".",".",".",11,"|"]],[[15,"|"],[13,"|"],[13,"|"],[13,"|"],[".","|"],[16,"|"]],[[".",".",".",".",".",".",".",15,16,15,".",".",".",".",".",".",".","|"],[".",".",".",".",".",13,16,".",".",".",16,13,".",".",".",".",".","|"],[".",".",".",12,13,".",".",".",".",".",".",".",13,12,".",".",".","|"],[".",".",13,".",".",".",".",".",".",".",".",".",".",".",13,".",".","|"],[".",15,".",".",".",".",".",".",".",".",".",".",".",".",".",15,".","|"],[16,".",".",".",".",".",".",".",".",".",".",".",".",".",".",".",16,"|"]]],"numberofstrings":6,"notes":["E","B","G","D","A","E","B"],"capo":0,"stringnotes":["E4","B3","G3","D3","A2","E2"],"comments":["Stave 1:","Stave 2:","Stave 3:","Stave 4:","Stave 5:","Stave 6:","Stave 7:","Stave 8:","Stave 9:","Stave 10:"],"timing":[["W"],["W","W","W","W","W","W","W","W","W","W","W","W","W","W","W","W","W"],["W"],["W","W","W","W","W","W","W","W","W","W","W","W","W","W","W","W","W"],["W"],["W","W","W","W","W","W","W","W","W","W","W","W","W","W","W","W","W","W","W"],["W"],["W","W","W","W","W","W","W","W","W","W","W","W","W","W","W","W","W"],["W","W","W","W","W"],["W","W","W","W","W","W","W","W","W","W","W","W","W","W","W","W","W"]],"timingvisible":false,"tabcounter":2,"stave":8,"totalstaves":10,"instrument":"6guitar","selectedtuning":"6_standard","version":"13"}

Member for

2 days 20 hours
Submitted by Mauro Varela on Wed, 2020-09-16 07:58