Abm7b5

Chords

01234567891011121314151617181920212223
E
B
G
D
A
E
B
0 1 2 3 4 5 6 7 8 9 10 11 12 13 14 15 16 17 18 19 20 21 22 23
(/) Slide Up  (\) Slide Down  (h) Hammer On  (p) Pull Off  (b) Bend (r) Release (v) Vibrato

Stave 1:

E|-----|--
B|--3--|--
G|--4--|--
D|--4--|--
A|-----|--
E|--4--|--

Stave 2:

E|-----------------------2--4--2-----------------------|--
B|--------------------3-----------3--------------------|--
G|--------------1--4-----------------4--1--------------|--
D|-----------4-----------------------------4-----------|--
A|-----2--5-----------------------------------5--2-----|--
E|--4-----------------------------------------------4--|--

Stave 3:

E|--4--|--
B|--7--|--
G|--4--|--
D|--4--|--
A|--5--|--
E|--4--|--

Stave 4:

E|--------------------------4--7--4--------------------------|--
B|-----------------------7-----------7-----------------------|--
G|-----------------4--7-----------------7--4-----------------|--
D|-----------4--6-----------------------------6--4-----------|--
A|--------5-----------------------------------------5--------|--
E|--4--7-----------------------------------------------7--4--|--

Stave 5:

E|--7--|--
B|--7--|--
G|--7--|--
D|--6--|--
A|-----|--
E|-----|--

Stave 6:

E|---------------------------7--10--7---------------------------|--
B|---------------------7--9------------9--7---------------------|--
G|------------------7------------------------7------------------|--
D|------------6--9------------------------------9--6------------|--
A|---------9------------------------------------------9---------|--
E|--7--10------------------------------------------------10--7--|--

Stave 7:

E|--10--|--
B|--9---|--
G|--11--|--
D|--9---|--
A|--11--|--
E|------|--

Stave 8:

E|-------------------------------10-------------------------------
B|------------------------9--12------12--9------------------------
G|--------------------11--------------------11--------------------
D|-------------9--12----------------------------12--9-------------
A|------9--11------------------------------------------11--9------
E|--10--------------------------------------------------------10--

Stave 9:

E|------|--
B|--12--|--
G|--11--|--
D|--12--|--
A|--11--|--
E|------|--

Stave 10:

E|----------------------------------10--14--10----------------------------------|--
B|------------------------------12--------------12------------------------------|--
G|----------------------11--13----------------------13--11----------------------|--
D|------------------12--------------------------------------12------------------|--
A|----------11--14----------------------------------------------14--11----------|--
E|--10--14--------------------------------------------------------------14--10--|--

							http://www.guitartabcreator.com
Instruments
{"strings":[[[".","|"],[3,"|"],[4,"|"],[4,"|"],[".","|"],[4,"|"]],[[".",".",".",".",".",".",".",2,4,2,".",".",".",".",".",".",".","|"],[".",".",".",".",".",".",3,".",".",".",3,".",".",".",".",".",".","|"],[".",".",".",".",1,4,".",".",".",".",".",4,1,".",".",".",".","|"],[".",".",".",4,".",".",".",".",".",".",".",".",".",4,".",".",".","|"],[".",2,5,".",".",".",".",".",".",".",".",".",".",".",5,2,".","|"],[4,".",".",".",".",".",".",".",".",".",".",".",".",".",".",".",4,"|"]],[[4,"|"],[7,"|"],[4,"|"],[4,"|"],[5,"|"],[4,"|"]],[[".",".",".",".",".",".",".",".",4,7,4,".",".",".",".",".",".",".",".","|"],[".",".",".",".",".",".",".",7,".",".",".",7,".",".",".",".",".",".",".","|"],[".",".",".",".",".",4,7,".",".",".",".",".",7,4,".",".",".",".",".","|"],[".",".",".",4,6,".",".",".",".",".",".",".",".",".",6,4,".",".",".","|"],[".",".",5,".",".",".",".",".",".",".",".",".",".",".",".",".",5,".",".","|"],[4,7,".",".",".",".",".",".",".",".",".",".",".",".",".",".",".",7,4,"|"]],[[7,"|"],[7,"|"],[7,"|"],[6,"|"],[".","|"],[".","|"]],[[".",".",".",".",".",".",".",".",7,10,7,".",".",".",".",".",".",".",".","|"],[".",".",".",".",".",".",7,9,".",".",".",9,7,".",".",".",".",".",".","|"],[".",".",".",".",".",7,".",".",".",".",".",".",".",7,".",".",".",".",".","|"],[".",".",".",6,9,".",".",".",".",".",".",".",".",".",9,6,".",".",".","|"],[".",".",9,".",".",".",".",".",".",".",".",".",".",".",".",".",9,".",".","|"],[7,10,".",".",".",".",".",".",".",".",".",".",".",".",".",".",".",10,7,"|"]],[[10,"|"],[9,"|"],[11,"|"],[9,"|"],[11,"|"],[".","|"]],[[".",".",".",".",".",".",".",".",10,".",".",".",".",".",".",".","."],[".",".",".",".",".",".",9,12,".",12,9,".",".",".",".",".","."],[".",".",".",".",".",11,".",".",".",".",".",11,".",".",".",".","."],[".",".",".",9,12,".",".",".",".",".",".",".",12,9,".",".","."],[".",9,11,".",".",".",".",".",".",".",".",".",".",".",11,9,"."],[10,".",".",".",".",".",".",".",".",".",".",".",".",".",".",".",10]],[[".","|"],[12,"|"],[11,"|"],[12,"|"],[11,"|"],[".","|"]],[[".",".",".",".",".",".",".",".",10,14,10,".",".",".",".",".",".",".",".","|"],[".",".",".",".",".",".",".",12,".",".",".",12,".",".",".",".",".",".",".","|"],[".",".",".",".",".",11,13,".",".",".",".",".",13,11,".",".",".",".",".","|"],[".",".",".",".",12,".",".",".",".",".",".",".",".",".",12,".",".",".",".","|"],[".",".",11,14,".",".",".",".",".",".",".",".",".",".",".",14,11,".",".","|"],[10,14,".",".",".",".",".",".",".",".",".",".",".",".",".",".",".",14,10,"|"]]],"numberofstrings":6,"notes":["E","B","G","D","A","E","B"],"capo":0,"stringnotes":["E4","B3","G3","D3","A2","E2"],"comments":["Stave 1:","Stave 2:","Stave 3:","Stave 4:","Stave 5:","Stave 6:","Stave 7:","Stave 8:","Stave 9:","Stave 10:"],"timing":[["W"],["W","W","W","W","W","W","W","W","W","W","W","W","W","W","W","W","W"],["W"],["W","W","W","W","W","W","W","W","W","W","W","W","W","W","W","W","W","W","W"],["W"],["W","W","W","W","W","W","W","W","W","W","W","W","W","W","W","W","W","W","W"],["W"],["W","W","W","W","W","W","W","W","W","W","W","W","W","W","W","W","W"],["W"],["W","W","W","W","W","W","W","W","W","W","W","W","W","W","W","W","W","W","W"]],"timingvisible":false,"tabcounter":20,"stave":9,"totalstaves":10,"instrument":"6guitar","selectedtuning":"6_standard","version":"13"}

Member for

2 days 20 hours
Submitted by Mauro Varela on Wed, 2020-09-16 14:08