Sound will begin in 5 seconds

A TUS PIES guitar seba tab

Chords
01234567891011121314151617181920212223
E
B
G
D
A
E
B
0 1 2 3 4 5 6 7 8 9 10 11 12 13 14 15 16 17 18 19 20 21 22 23
Song Science #1: How Pros Use 6 Chords to Write Hit Songs
(/) Slide Up  (\) Slide Down  (h) Hammer On  (p) Pull Off  (b) Bend (r) Release (v) Vibrato

Stave 1:

D|--------------------------------------------
A|--------------------------------------------
F|--------------------------------------------
C|--------------------------------------------
G|--------------------------------------------
D|--1-----------------5--5-----4--------------
G|-----4--1--0--3--4--------3-----3--4--1--0--

Stave 2:

D|-----------------------------------------------
A|-----------------------------------------------
F|-----------------------------------------------
C|-----------------------------------------------
G|-----------------------------------3--4--1--0--
D|--1--------------------5--5-----4--3--4--1--0--
G|-----4--1--0--1--3--4--------3-----3--4--1--0--

Stave 3:

D|--------------------------------------------
A|--------------------------------------------
F|--------------------------------------------
C|--------------------------------------------
G|-----------------------4--4-----3--4--1--0--
D|--1-----------------------------3--4--1--0--
G|-----4--1--0--1--3--4--------3--3--4--1--0--

Stave 4:

D|-----------------------------------------
A|-----------------------------------------
F|-----------------------------------------
C|-----------------------------------------
G|-----------------------------------------
D|-----------------------5--------------8--
G|--0-----0--0--0--0--------8--5--4--5-----

Stave 5:

D|--------------------------------------------
A|--------------------------------------------
F|--------------------------------------------
C|--------------------------------------------
G|-----------------------4--3--1--3--4-----7--
D|-----------------------4--3--1--3-----------
G|--0-----0--0--0--0-----4--3--1--3-----3-----

Stave 6:

D|--------------------------------------------------------------------------
A|--------------------------------------------------------------------------
F|--------------------------------------------------------------------------
C|--------------------------------------------------------------------------
G|--------------------------------------------------------------------------
D|--------------------------1-----------------------------5--------------8--
G|--1--0-----0--0--0--0--------4--0--0--4--7--1--4--0--0-----8--5--4--5-----

Stave 7:

D|--------------------------------------------------------------
A|--------------------------------------------------------------
F|--------------------------------------------------------------
C|--------------------------------------------------------------
G|--------------------------------------------------------------
D|-----------------1--------------------------5--------------8--
G|--1--0--0--0--0-----4--0--0--4--7--1--4--0-----8--5--4--5-----

Stave 8:

D|-------------------------------------------------------------------------
A|-------------------------------------------------------------------------
F|-------------------------------------------------------------------------
C|-------------------------------------------------------------------------
G|-------------------------------------------------------------------------
D|-----------------1-------------------------------------------------------
G|--1--0--0--0--0-----4--0--0--4--7--1--4--0--13--12--10--9--6--9--10--12--

Stave 9:

D|--8---4--1--7---
A|--9---5--2--8---
F|--10--6--3--9---
C|--11--7--x--10--
G|--8---4--1--7---
D|--8---4--1--7---
G|--8---4--1--7---

Stave 10:

D|--------------------------------------------------------
A|--------------------------------------------------------
F|--------------------------------------------------------
C|--------------------------------------------------------
G|--8--5--------------1--------------7--8--7--4--7--------
D|--8--5--------------1--------------7--8--7--4--7--------
G|--8--5--1--1--1--1--1--7--7--7--7--7--8--7--4--7--3--0--

Stave 11:

D|-----------------------------------------
A|-----------------------------------------
F|-----------------------------------------
C|-----------------------------------------
G|-----------------------------------------
D|-----------------1--0--1--3--4--3--1--0--
G|--0--0--0--0-----------------------------

Stave 12:

D|------------------------------------------
A|------------------------------------------
F|------------------------------------------
C|--------------------------6--10--6--------
G|-----------------8--7--8------------8--7--
D|------------------------------------------
G|--0--0--0--0------------------------------

Stave 13:

D|--------------------------------------------------------------------------------------
A|--------------------------------------------------------------------------------------
F|--------------------------------------------------------------------------------------
C|--------------------------------------------------------------------------------------
G|-----------8--7--4-----------8--7--4-----------8--7--4--------------------------------
D|--5--4--5-----------5--4--5-----------5--4--5-----------------1--0--1--3--4--3--1--0--
G|--------------------------------------------------------------------------------------

Stave 14:

D|------------------------------------------------------------------------------------------
A|------------------------------------------------------------------------------------------
F|------------------------------------------------------------------------------------------
C|--------------------------------------------------------------------------6--10--6--------
G|-----------8--7--4--------------8--7--4--------------8--7--4-----8--7--8------------8--7--
D|--5--4--5--------------5--4--5--------------5--4--5---------------------------------------
G|------------------------------------------------------------------------------------------

http://www.guitartabcreator.com
Guitar Tab Creator is intended to store guitar tab created through the tool. It currently does not support in-line text editing. Any text you place in here will be lost. If you need to comment on your tab, please use the "Tab Notes" section located below.