Sound will begin in 5 seconds

NTMDEC bass tab

01234567891011121314151617181920212223
E
B
G
D
A
E
B
0 1 2 3 4 5 6 7 8 9 10 11 12 13 14 15 16 17 18 19 20 21 22 23
Song Science #1: How Pros Use 6 Chords to Write Hit Songs
(/) Slide Up  (\) Slide Down  (h) Hammer On  (p) Pull Off  (b) Bend (r) Release (v) Vibrato

Stave 1:

F|---------------------------------------------------------
C|---------------------------------------------------------
G|---------------------------------------------------------
D|---------------------------------------------------------
B|-12-0-12-0-12-0-12-0-12-0-12-0-12-0-12-0-1-0-1-3-4-3-1-0-

Stave 2:

F|---------------------------------
C|---------------------------------
G|---------------------------------
D|---------------------------------
B|-0-0-0-0-0-0-0-0-1-0-1-3-4-3-1-0-

Stave 3:

F|-------------------------
C|-------------------------
G|-------------------------
D|-7-7-7-7-2-2-3-3-3-3-0-0-
B|-------------------------

Stave 4:

F|-------------------------
C|-------------------------
G|-------------------------
D|-7-7-7-7-2-2-3-3-3-3-0-2-
B|-------------------------

Stave 5:

F|---------------------------------
C|---------------------------------
G|---------------------------------
D|-----------2-2-3-3-3-3-3-0-0-2-2-
B|-0-0-0-0-0-----------------------

Stave 6:

F|-
C|-
G|-
D|-
B|-

http://www.guitartabcreator.com
Guitar Tab Creator is intended to store guitar tab created through the tool. It currently does not support in-line text editing. Any text you place in here will be lost. If you need to comment on your tab, please use the "Tab Notes" section located below.