Sound will begin in 5 seconds

NTMDEC

01234567891011121314151617181920212223
E
B
G
D
A
E
B
0 1 2 3 4 5 6 7 8 9 10 11 12 13 14 15 16 17 18 19 20 21 22 23
Song Science #1: How Pros Use 6 Chords to Write Hit Songs
(/) Slide Up  (\) Slide Down  (h) Hammer On  (p) Pull Off  (b) Bend (r) Release (v) Vibrato

Stave 1:

D|-----------------
A|-----------------
F|-----------------
C|-----------------
G|-9-5-------5-9-7-
D|-----7-3-0-------
B|-----------------

Stave 2:

D|-----------------
A|-----------------
F|-----------------
C|-----------------
G|-----------------
D|-3-2-------------
B|-----5-4-1-3-4-1-

Stave 3:

D|---------------------------------------
A|---------------------------------------
F|-------------------------------7-6-----
C|-5-4--------9-4--------9-4---------4-5-
G|-----5----------5----------5-2---------
D|-------7----------7--------------------
B|---------------------------------------

Stave 4:

D|-
A|-
F|-
C|-
G|-
D|-
B|-

http://www.guitartabcreator.com
Guitar Tab Creator is intended to store guitar tab created through the tool. It currently does not support in-line text editing. Any text you place in here will be lost. If you need to comment on your tab, please use the "Tab Notes" section located below.