Rito Village(Night)

Chords

01234567891011121314151617181920212223
E
B
G
D
A
E
B
0 1 2 3 4 5 6 7 8 9 10 11 12 13 14 15 16 17 18 19 20 21 22 23
(/) Slide Up  (\) Slide Down  (h) Hammer On  (p) Pull Off  (b) Bend (r) Release (v) Vibrato

Stave 1:

E|--1--------------0-----------------------------------------0-----------------------------------------------------------------------------
B|--3--------------1-----------------4--------------------3--------------------------------------------------------------------------------
G|--2--------------2-----------------5-----------------2-----------------------------------------------------------------------------------
D|--3--------------2-----------------6--------------0--------------------------------------------------------------------------------------
A|--1--------------0-----------------6-----------------------------------------------------------------------------------------------------
E|-----------------------------------------------------------------------------------------------------------------------------------------

Stave 2:

E|--------------------------------------------------------------------------------------------------0-----0--------------------------
B|--------2-----2-----------------------------3-----3-----------2-----2-----------2-----2-----------0-----0-----------2-----2--3--2--
G|--------2-----2-----------6-----6--------2--2-----2-----------2-----2-----------2-----2-----------1-----1-----------2-----2--2--2--
D|-----4--------------------6-----6-----0--------0-----0-----4-----------------4-----------------2-----------------2-----------------
A|-----------------------4--------------------------------------------------------------------------------------0--------0-----------
E|--2--------2-----2--0--------0-----0--------------------2--------2--------2--------2-----2--0--------0-----0-----------------------

Stave 3:

E|-----------------------------------------------------------------------------------------------------------------------------------
B|-----2-----2-----2-----------------0-----------------0-----------------2-----------------2-----------------0-----------------0-----
G|-----2-----2-----2-----------0--------0--------0--------0--------2-----------------2-----------------1-----------------1-----------
D|--------------------------0-----------------0-----------------4-----------------4-----------------2-----------------2--------------
A|--0-----0-----0-----0--------------------------------------------------------------------------------------------------------------
E|-----------------------3--------3--------3--------3--------2--------2-----2--2--------2-----2--0--------0-----0--0--------0-----0--

Stave 4:

E|--------------0-----0h2-----------------------------------------------------------------------2-----------------5-----------3-----
B|--------3----------------------3--------------------4--------------4-----------------0--------------------0-----3--------3--------
G|-----2----------------------2-----------------4--------4--------4-----------------0-----0--------0--------------0--0--------------
D|--0--------0-----0-------0--------0--------4-----------------4-----------------0-----------0--------0-----------0-----0-----------
A|-------------------------------------4--2--------2--------2-----------2--0-----------------------------2--------------------------
E|----------------------------------------------------------------------------3-----------------------------------------------------

Stave 5:

E|-----------------------------------------0-----------------------------2--------------------------------------------1--------
B|-----------3--------------------0-----------------4-----------3-----------------0-----------1-----------------1--------4-----
G|--0-----0-----0-----0--------0-----0--------------3--------2-----2--------------1--------0-----0-----------2-----------------
D|-----0-----------0--------2-----------2-----------5-----4-----------4-----------0-----2-----------2-----0--------0-----------
A|-----------------------3--------------------------3--2--------------------------2--0-----------------------------------------
E|-----------------------------------------------------------------------------------------------------------------------------

Stave 6:

E|--------------------2-----------------------------------0--------------------------2--3--2----------------------------------------
B|-----------0--------------0--------------------0--------------------------3--------------------------------------2--------0h2-----
G|--------0-----0--------------0--------------0-----0--------------------2-----2-----------------4--------------0-----0-----0-------
D|-----0-----------0--------------0--------2-----------2--------------4-----------4-----------------4--------2-----------2----------
A|--------------------------------------3--------------------------2-----------------------------------2--0-------------------------
E|--3-------------------------------------------------------------------------------------------------------------------------------

Stave 7:

E|--3-----------------------0--------------------------------0--------------------3-----1--------
B|-----------------1--------------------------------1-----------------------------1-----------1--
G|-----------------------------2--------2-----------------------2--------2--------2--------------
D|--------------2-----2--------------2-----------2-----2--------------2-----------1--------------
A|-----------3-----------3--------3-----------3-----------3--------3--------------3--------------
E|--------1--------------------------------1--------------------------------------1--------------

							http://www.guitartabcreator.com
Instruments
{"strings":[[[1,".",".",".",".",0,".",".",".",".",".",".",".",".",".",".",".",".",".",0,".",".",".",".",".",".",".",".",".",".",".",".",".",".",".",".",".",".",".",".",".",".",".",".","_"],[3,".",".",".",".",1,".",".",".",".",".",4,".",".",".",".",".",".",3,".",".",".",".",".",".",".",".",".",".",".",".",".",".",".",".",".",".",".",".",".",".",".",".",".","_"],[2,".",".",".",".",2,".",".",".",".",".",5,".",".",".",".",".",2,".",".",".",".",".",".",".",".",".",".",".",".",".",".",".",".",".",".",".",".",".",".",".",".",".",".","_"],[3,".",".",".",".",2,".",".",".",".",".",6,".",".",".",".",0,".",".",".",".",".",".",".",".",".",".",".",".",".",".",".",".",".",".",".",".",".",".",".",".",".",".",".","_"],[1,".",".",".",".",0,".",".",".",".",".",6,".",".",".",".",".",".",".",".",".",".",".",".",".",".",".",".",".",".",".",".",".",".",".",".",".",".",".",".",".",".",".",".","_"],[".",".",".",".",".",".",".",".",".",".",".",".",".",".",".",".",".",".",".",".",".",".",".",".",".",".",".",".",".",".",".",".",".",".",".",".",".",".",".",".",".",".",".",".","_"]],[[".",".",".",".",".",".",".",".",".",".",".",".",".",".",".",".",".",".",".",".",".",".",".","_",".",".",".",".",".",".",".",".",0,".",0,".",".",".",".",".",".",".","."],[".",".",2,".",2,".",".",".",".",".",".",".",".",".",3,".",3,".",".",".",2,".",2,"_",".",".",2,".",2,".",".",".",0,".",0,".",".",".",2,".",2,3,2],[".",".",2,".",2,".",".",".",6,".",6,".",".",2,2,".",2,".",".",".",2,".",2,"_",".",".",2,".",2,".",".",".",1,".",1,".",".",".",2,".",2,2,2],[".",4,".",".",".",".",".",".",6,".",6,".",0,".",".",0,".",0,".",4,".",".",".","_",".",4,".",".",".",".",".",2,".",".",".",".",".",2,".",".",".",".","."],[".",".",".",".",".",".",".",4,".",".",".",".",".",".",".",".",".",".",".",".",".",".",".","_",".",".",".",".",".",".",".",".",".",".",".",".",0,".",".",0,".",".","."],[2,".",".",2,".",2,0,".",".",0,".",0,".",".",".",".",".",".",2,".",".",2,".","_",2,".",".",2,".",2,0,".",".",0,".",0,".",".",".",".",".",".","."]],[[".",".",".",".",".",".",".",".",".",".",".",".",".",".",".",".",".",".",".",".",".",".",".",".",".",".",".",".",".",".",".",".",".",".",".",".",".",".",".",".",".",".","."],[".",2,".",2,".",2,".",".",".",".",".",0,".",".",".",".",".",0,".",".",".",".",".",2,".",".",".",".",".",2,".",".",".",".",".",0,".",".",".",".",".",0,"."],[".",2,".",2,".",2,".",".",".",0,".",".",0,".",".",0,".",".",0,".",".",2,".",".",".",".",".",2,".",".",".",".",".",1,".",".",".",".",".",1,".",".","."],[".",".",".",".",".",".",".",".",0,".",".",".",".",".",0,".",".",".",".",".",4,".",".",".",".",".",4,".",".",".",".",".",2,".",".",".",".",".",2,".",".",".","."],[0,".",0,".",0,".",0,".",".",".",".",".",".",".",".",".",".",".",".",".",".",".",".",".",".",".",".",".",".",".",".",".",".",".",".",".",".",".",".",".",".",".","."],[".",".",".",".",".",".",".",3,".",".",3,".",".",3,".",".",3,".",".",2,".",".",2,".",2,2,".",".",2,".",2,0,".",".",0,".",0,0,".",".",0,".",0]],[[".",".",".",".",0,".",0,"h",2,".",".",".",".",".",".",".",".",".",".",".",".",".",".",".",".",".",".",".",".",".",".",".",2,".",".",".",".","_",5,".",".",".",3,"_"],[".",".",3,".",".",".",".",".",".",".",".",3,".",".",".",".",".",".",4,".",".",".",".",4,".",".",".",".",".",0,".",".",".",".",".",".",0,"_",3,".",".",3,".","_"],[".",2,".",".",".",".",".",".",".",".",2,".",".",".",".",".",4,".",".",4,".",".",4,".",".",".",".",".",0,".",0,".",".",0,".",".",".","_",0,0,".",".",".","_"],[0,".",".",0,".",0,".",".",".",0,".",".",0,".",".",4,".",".",".",".",".",4,".",".",".",".",".",0,".",".",".",0,".",".",0,".",".","_",0,".",0,".",".","_"],[".",".",".",".",".",".",".",".",".",".",".",".",".",4,2,".",".",2,".",".",2,".",".",".",2,0,".",".",".",".",".",".",".",".",".",2,".","_",".",".",".",".",".","_"],[".",".",".",".",".",".",".",".",".",".",".",".",".",".",".",".",".",".",".",".",".",".",".",".",".",".",3,".",".",".",".",".",".",".",".",".",".","_",".",".",".",".",".","_"]],[[".",".",".",".",".",".",".",".",".",".",".",".",".",0,"_","_",".",".",".",".",".",".",".",2,"_","_",".",".",".",".",".",".",".","_",".",".",".",".",1,".","_"],[".",".",".",3,".",".",".",".",".",".",0,".",".",".","_","_",4,".",".",".",3,".",".",".","_","_",0,".",".",".",1,".",".","_",".",".",1,".",".",4,"_"],[0,".",0,".",0,".",0,".",".",0,".",0,".",".","_","_",3,".",".",2,".",2,".",".","_","_",1,".",".",0,".",0,".","_",".",2,".",".",".",".","_"],[".",0,".",".",".",0,".",".",2,".",".",".",2,".","_","_",5,".",4,".",".",".",4,".","_","_",0,".",2,".",".",".",2,"_",0,".",".",0,".",".","_"],[".",".",".",".",".",".",".",3,".",".",".",".",".",".","_","_",3,2,".",".",".",".",".",".","_","_",2,0,".",".",".",".",".","_",".",".",".",".",".",".","_"],[".",".",".",".",".",".",".",".",".",".",".",".",".",".","_","_",".",".",".",".",".",".",".",".","_","_",".",".",".",".",".",".",".","_",".",".",".",".",".",".","_"]],[[".",".",".",".",".",".",2,"_",".",".",".","_",".",".",".",".",".",".",0,"_","_",".",".",".",".",".",".",2,3,2,"_",".",".",".",".",".",".",".",".",".",".",".",".","_"],[".",".",".",0,".",".",".","_",0,".",".","_",".",".",".",0,".",".",".","_","_",".",".",".",3,".",".",".",".",".","_",".",".",".",".",".",".",2,".",".",0,"h",2,"_"],[".",".",0,".",0,".",".","_",".",0,".","_",".",".",0,".",0,".",".","_","_",".",".",2,".",2,".",".",".",".","_",4,".",".",".",".",0,".",0,".",0,".",".","_"],[".",0,".",".",".",0,".","_",".",".",0,"_",".",2,".",".",".",2,".","_","_",".",4,".",".",".",4,".",".",".","_",".",4,".",".",2,".",".",".",2,".",".",".","_"],[".",".",".",".",".",".",".","_",".",".",".","_",3,".",".",".",".",".",".","_","_",2,".",".",".",".",".",".",".",".","_",".",".",2,0,".",".",".",".",".",".",".",".","_"],[3,".",".",".",".",".",".","_",".",".",".","_",".",".",".",".",".",".",".","_","_",".",".",".",".",".",".",".",".",".","_",".",".",".",".",".",".",".",".",".",".",".",".","_"]],[[3,"_",".",".",".",".",".",".",0,".",".",".",".",".",".",".",".",".",".",0,".",".",".",".","_","_",3,"_",1,"_","."],[".","_",".",".",".",1,".",".",".",".",".",".",".",".",".",".",1,".",".",".",".",".",".",".","_","_",1,"_",".","_",1],[".","_",".",".",".",".",".",".",".",2,".",".",2,".",".",".",".",".",".",".",2,".",".",2,"_","_",2,"_",".","_","."],[".","_",".",".",2,".",2,".",".",".",".",2,".",".",".",2,".",2,".",".",".",".",2,".","_","_",1,"_",".","_","."],[".","_",".",3,".",".",".",3,".",".",3,".",".",".",3,".",".",".",3,".",".",3,".",".","_","_",3,"_",".","_","."],[".","_",1,".",".",".",".",".",".",".",".",".",".",1,".",".",".",".",".",".",".",".",".",".","_","_",1,"_",".","_","."]]],"numberofstrings":6,"notes":["E","B","G","D","A","E","B"],"capo":0,"stringnotes":["E4","B3","G3","D3","A2","E2"],"comments":["Stave 1:","Stave 2:","Stave 3:","Stave 4:","Stave 5:","Stave 6:","Stave 7:"],"timing":[["W","W","W","W","W","W","W","W","W","W","W","W","W","W","W","W","W","W","W","W","W","W","W","W","W",null,"W","W","W","W","W"],["W","W","W","W","W","W","W","W","W","W","W","W","W","W","W","W","W","W","W","W","W","W","W",null,"W","W","W","W","W","W","W","W","W","W","W","W","W","W","W","W","W","W","W"],["W","W","W","W","W","W","W","W","W","W","W","W","W","W","W","W","W","W","W","W","W","W","W","W","W","W","W","W","W","W","W","W","W","W","W","W","W","W","W","W","W"],["W","W","W","W","W",null,"W",null,"W","W","W","W","W","W","W","W","W","W","W","W","W","W","W","W","W",null,"W","W","W","W","W","W","W","W","W","W",null,"W","W","W","W","W","W","W"],["W","W","W","W","W","W","W","W","W","W","W","W","W","W","W",null,null,"W","W","W","W","W","W","W","W",null,null,"W","W","W","W","W","W","W",null,"W","W","W","W","W","W"],["W","W","W","W","W","W","W","W","W","W","W",null,"W","W","W","W","W","W","W",null,null,"W","W","W","W","W","W","W","W","W",null,"W","W","W","W","W","W","W","W","W","W",null,"W"],["W",null,"W","W","W","W","W","W","W","W","W","W","W","W","W","W","W","W","W","W","W","W","W","W",null,null,"W",null,"W",null,"W"]],"timingvisible":false,"tabcounter":32,"stave":4,"totalstaves":7,"instrument":"6guitar","selectedtuning":"6_standard","version":"13"}

Member for

1 week 5 days
Submitted by matty64 on Wed, 2020-05-20 20:44