Sound will begin in 5 seconds

Eric Johnson Arpeggios

01234567891011121314151617181920212223
E
B
G
D
A
E
B
0 1 2 3 4 5 6 7 8 9 10 11 12 13 14 15 16 17 18 19 20 21 22 23
Song Science #1: How Pros Use 6 Chords to Write Hit Songs
(/) Slide Up  (\) Slide Down  (h) Hammer On  (p) Pull Off  (b) Bend (r) Release (v) Vibrato

Stave 1:

E|---------------------------------------------------------------------------------------
B|---------12----------14----------17----------19----------------------------------------
G|------9----------11----------14----------16------------3--------5--------8---------10--
D|----------------------------------------------------1--------3--------6---------8------
A|--11---------13----------16----------18------------------------------------------------
E|-------------------------------------------------4--------6--------9--------11---------

Stave 2:

E|-----------------------------------------
B|--------5--------7--------10---------12--
G|-----2--------4--------7----------9------
D|-----------------------------------------
A|--4--------6--------9---------11---------
E|-----------------------------------------

http://www.guitartabcreator.com
Guitar Tab Creator is intended to store guitar tab created through the tool. It currently does not support in-line text editing. Any text you place in here will be lost. If you need to comment on your tab, please use the "Tab Notes" section located below.