Sound will begin in 5 seconds

You're So Vain Solo

Chords
01234567891011121314151617181920212223
E
B
G
D
A
E
B
0 1 2 3 4 5 6 7 8 9 10 11 12 13 14 15 16 17 18 19 20 21 22 23
Song Science #1: How Pros Use 6 Chords to Write Hit Songs
(/) Slide Up  (\) Slide Down  (h) Hammer On  (p) Pull Off  (b) Bend (r) Release (v) Vibrato

Stave 1:

E|----------------------------------------------------
B|----------------------------------------------------
G|--------------------------------------------5b6-----
D|-------5-----5h7v----------------5-----5h7-------7--
A|--5h7-----7-----------------5h7-----7---------------
E|----------------------------------------------------

Stave 2:

E|-----------------------------------
B|----------------7-------------5----
G|--5--7--5--7b9-----9b7--5-----5b6--
D|---------------------------7-------
A|-----------------------------------
E|-----------------------------------

Stave 3:

E|-------------------------------8b10--8b10--8--------8--8p5-----5------------------------------
B|--5--8--8b10--------8b10b8--5-------------------------------8-----8--5------------------------
G|------------------------------------------------------------------------7--5-----7b8--5b6-----
D|------------------------------------------------------------------------------7------------7--
A|----------------------------------------------------------------------------------------------
E|----------------------------------------------------------------------------------------------

Stave 4:

E|--5-------------------5-------------------------------
B|-----5-------------------5----------------------------
G|--------7b9--7--5-----------7b9--7--5v----------------
D|-------------------7--------------------7--5-----5h7--
A|----------------------------------------------7-------
E|------------------------------------------------------

http://www.guitartabcreator.com
Guitar Tab Creator is intended to store guitar tab created through the tool. It currently does not support in-line text editing. Any text you place in here will be lost. If you need to comment on your tab, please use the "Tab Notes" section located below.