Sound will begin in 5 seconds

Yeah

01234567891011121314151617181920212223
E
B
G
D
A
E
B
0 1 2 3 4 5 6 7 8 9 10 11 12 13 14 15 16 17 18 19 20 21 22 23
Song Science #1: How Pros Use 6 Chords to Write Hit Songs
(/) Slide Up  (\) Slide Down  (h) Hammer On  (p) Pull Off  (b) Bend (r) Release (v) Vibrato

Stave 1:

E|-----------7-----------7-----------7-----------7-----
B|-----------0-----------0-----------0-----------0-----
G|-----9-----6-----9-----6-----9-----6-----9-----6-----
D|-----6-----7-----6-----7-----6-----7-----6-----7-----
A|-----7-----0-----7-----0-----7-----7-----7-----0-----
E|-----0-----------0-----------0-----------0-----------

Stave 2:

E|-----------------0-----0-0-----0-----
B|-----------------0-----0-0-----0-----
G|-----8-----6-----1-----1-3-----1-----
D|-----9-----7-----2-----2-4-----2-----
A|-----6-----4-----2-----2/4-----2-----
E|-----7-----5-----0-----0-0-----0-----

Stave 3:

E|----------------------------------------------------------------------
B|----------------------------------------------------------------------
G|----------------------------------------------------------------------
D|-----2-----4-----7-----9-----14-----16-----12-----15-----11-----9-----
A|-----2-----4-----7-----9-----14---------------------------------------
E|-----0-----0-----0-----0-----0----------------------------------------

http://www.guitartabcreator.com
Guitar Tab Creator is intended to store guitar tab created through the tool. It currently does not support in-line text editing. Any text you place in here will be lost. If you need to comment on your tab, please use the "Tab Notes" section located below.