Sound will begin in 5 seconds

Maria Solo

Chords
01234567891011121314151617181920212223
E
B
G
D
A
E
B
0 1 2 3 4 5 6 7 8 9 10 11 12 13 14 15 16 17 18 19 20 21 22 23
Song Science #1: How Pros Use 6 Chords to Write Hit Songs
(/) Slide Up  (\) Slide Down  (h) Hammer On  (p) Pull Off  (b) Bend (r) Release (v) Vibrato

Stave 1:

E|-----4/5--5--5--4/5--5--5--4/5--5--5--4/5--5--5--------------
B|-----4-5--5--5--4-5--5--5--4-5--5--5--4-5--5--5--------------
G|-------------------------------------------------8--7--5-----
D|----------------------------------------------------------7--
A|-------------------------------------------------------------
E|-------------------------------------------------------------

Stave 2:

E|--------------------------------------------
B|--------------------------------------------
G|--5b6-----5--7b9b7p5-----5b6-----------5/7--
D|-------7--------------7-------7--5--7-------
A|--------------------------------------------
E|--------------------------------------------

Stave 3:

E|----------7----------7----------7----------7----------7--
B|-------7----------7----------7----------7----------7-----
G|--7b9--------7b9--------7b9--------7b9--------7b9--------
D|---------------------------------------------------------
A|---------------------------------------------------------
E|---------------------------------------------------------

Stave 4:

E|------------------8b10--
B|--8b10--8b10b8\5--------
G|------------------------
D|------------------------
A|------------------------
E|------------------------

Stave 5:

E|---------------------------------------------------8p5-------------------
B|-------5--8p5--8p5-------5--8p5--8p5-------5--8p5-------8p5--------------
G|--7b9---------------7b9---------------7b9--------------------7--5-----5--
D|-------------------------------------------------------------------7-----
A|-------------------------------------------------------------------------
E|-------------------------------------------------------------------------

Stave 6:

E|------------------------------------
B|------------------------------------
G|------------------------------------
D|--7--5--7--5------------------------
A|--------------7--5\3-----------3b4--
E|----------------------5--3--5-------

Stave 7:

E|-----------------------------------------------------
B|-----------------------------------------------------
G|--------------------------5-----5--7b9b7p5-----5-----
D|--------------5-----5--7-----7--------------7-----7--
A|-------3h5/7-----7-----------------------------------
E|--3h5------------------------------------------------

Stave 8:

E|---------------------------------------------------------------
B|--7-7--7--5--7-7--7--5--7-7--7--5--7-7--7--5-------------------
G|--7b8--7--5--7b8--7--5--7b8--7--5--7b8--7--5--8--7--5--0--0h2--
D|---------------------------------------------------------------
A|---------------------------------------------------------------
E|---------------------------------------------------------------

http://www.guitartabcreator.com
Guitar Tab Creator is intended to store guitar tab created through the tool. It currently does not support in-line text editing. Any text you place in here will be lost. If you need to comment on your tab, please use the "Tab Notes" section located below.