Sound will begin in 5 seconds

If Ever Solo

01234567891011121314151617181920212223
E
B
G
D
A
E
B
0 1 2 3 4 5 6 7 8 9 10 11 12 13 14 15 16 17 18 19 20 21 22 23
Song Science #1: How Pros Use 6 Chords to Write Hit Songs
(/) Slide Up  (\) Slide Down  (h) Hammer On  (p) Pull Off  (b) Bend (r) Release (v) Vibrato

Stave 1:

E|---12-12-12-12-12-12-14-14-14-14-14-14-15-15-15-15-18-18-18-18-18-18-17-17-17-17-17-17-15-15-15-15-
B|---12-12-12-12-12-12-14-14-14-14-14-14-15-15-15-15-18-18-18-18-18-18-17-17-17-17-17-17-15-15-15-15-
G|---------------------------------------------------------------------------------------------------
D|---------------------------------------------------------------------------------------------------
A|---------------------------------------------------------------------------------------------------
E|---------------------------------------------------------------------------------------------------

Stave 2:

E|-17-17-17-17-17-17-15-15-15-15-15-15-10-10-10-10-12-12-12-12-12-12-12-12-12-12-12-12-12-12-12-12-
B|-17-17-17-17-17-17-15-15-15-15-15-15-10-10-10-10-12-12-12-12-12-12-12-12-12-12-12-12-12-12-12-12-
G|-------------------------------------------------------------------------------------------------
D|-------------------------------------------------------------------------------------------------
A|-------------------------------------------------------------------------------------------------
E|-------------------------------------------------------------------------------------------------

Stave 3:

E|-12-14-15-14-12-14-15-14-12-14-15-14-12-14-15-14-12-15-17-15-12-15-17-15-12-15-17-15-12-15-17-15-
B|-------------------------------------------------------------------------------------------------
G|-------------------------------------------------------------------------------------------------
D|-------------------------------------------------------------------------------------------------
A|-------------------------------------------------------------------------------------------------
E|-------------------------------------------------------------------------------------------------

Stave 4:

E|-18-12-12-12-12-12-17-12-12-12-12-12-15-12-12-12-17-12-12-12-12-12-15-12-12-12-12-12-14-12-12-12-
B|-------------------------------------------------------------------------------------------------
G|-------------------------------------------------------------------------------------------------
D|-------------------------------------------------------------------------------------------------
A|-------------------------------------------------------------------------------------------------
E|-------------------------------------------------------------------------------------------------

Stave 5:

E|-15-12-12-12-12-12-14-12-12-12-12-12-------------
B|-------------------------------------15----15b17-
G|-------------------------------------------------
D|-------------------------------------------------
A|-------------------------------------------------
E|-------------------------------------------------

Stave 6:

E|--12-14-15-14-12-14-15-14-12-14-15-14-12-14-15-14-15-17-19-17-15-17-19-17-15-17-19-17-15-17-19-17-
B|--------------------------------------------------------------------------------------------------
G|--------------------------------------------------------------------------------------------------
D|--------------------------------------------------------------------------------------------------
A|--------------------------------------------------------------------------------------------------
E|--------------------------------------------------------------------------------------------------

Stave 7:

E|-10-12-14-12-10-12-14-12-10-12-14-12-10-12-14-12-12-15-17-15-12-15-17-15-12-15-17-15-12-15-17-15-
B|-------------------------------------------------------------------------------------------------
G|-------------------------------------------------------------------------------------------------
D|-------------------------------------------------------------------------------------------------
A|-------------------------------------------------------------------------------------------------
E|-------------------------------------------------------------------------------------------------

Stave 8:

E|----------------------------------12-------------------------------------------
B|-15b17-15b17-15-12-------------12-------------------------12-----------12------
G|-------------------14-12-14b16-------14b16b14-12----------12-----------12------
D|-------------------------------------------------14-12-14-----14-12-14-----14v-
A|-------------------------------------------------------------------------------
E|-------------------------------------------------------------------------------

Stave 9:

E|----------------------------------------------------------------------------------
B|-5---5---5---7----7----7----8-----8-----8-----10----10----10----12----12----12----
G|-7b9-7b9-7b9-9b11-9b11-9b11-10b12-10b12-10b12-12b14-12b14-12b14-14b16-14b16-14b16-
D|----------------------------------------------------------------------------------
A|----------------------------------------------------------------------------------
E|----------------------------------------------------------------------------------

Stave 10:

E|-12----12----12----14----14----14----15----15----15----15-----
B|-15b17-15b17-15b17-17b19-17b19-17b19-18b20-18b20-18b20-18b20v-
G|--------------------------------------------------------------
D|--------------------------------------------------------------
A|--------------------------------------------------------------
E|--------------------------------------------------------------

Stave 11:

E|-
B|-
G|-
D|-
A|-
E|-

http://www.guitartabcreator.com
Guitar Tab Creator is intended to store guitar tab created through the tool. It currently does not support in-line text editing. Any text you place in here will be lost. If you need to comment on your tab, please use the "Tab Notes" section located below.