Sound will begin in 5 seconds

DGCGCD Tuning

01234567891011121314151617181920212223
E
B
G
D
A
E
B
0 1 2 3 4 5 6 7 8 9 10 11 12 13 14 15 16 17 18 19 20 21 22 23
Song Science #1: How Pros Use 6 Chords to Write Hit Songs
(/) Slide Up  (\) Slide Down  (h) Hammer On  (p) Pull Off  (b) Bend (r) Release (v) Vibrato

Stave 1:

E|-2-0-3/5-2-0-0-0-----0-0-0-----
B|-0-0-0---0-0-0-0-----0-0-0-----
G|-------------------------------
D|-0-0-0---0---------------------
A|-----------3-3-2/3/5-0-0-0h2/3-
E|-------------------------------

Stave 2:

E|-0-0-0-0-0-0-0-0-0-0-0-0-
B|-2-2-0-2-2-0-2-2-0-5-5-2-
G|-------------------------
D|-3-3-0-------2-2-0-5-5-2-
A|-------3-3-0-------------
E|-------------------------

Stave 3:

E|-0-0-0-0-0-0-0-0-0--0--0--0-
B|-2-2-0-2-2-0-7-9-10-12-10-9-
G|----------------------------
D|-3-3-0-------7-9-10-12-10-9-
A|-------3-3-0----------------
E|----------------------------

Stave 4:

E|---------------------0-----
B|-----0-----------------0---
G|---0-------0------0------0-
D|-3-------0------2----------
A|-------3------0------------
E|---------------------------

Stave 5:

E|-------------------------
B|-------------------------
G|-7-7-7-5-5-5-4-4-4-4-4-4-
D|-7-7-7-5-5-5-2-2-2-2-2-2-
A|-5-5-5-3-3-3-0-0-0-0-0-0-
E|-------------0-0-0-0-0-0-

Stave 6:

E|-0-0-0-0-0-0-0-0-0-0-0-0-0---
B|-0-0-0-0-0-0-2-2-2-2-2-2-2---
G|-5-5-5-3-3-3-0-0-3-0-3-0-0---
D|-4-4-4-3-3-3-2-2-2-2-2-2-2---
A|-5-5-5-3-3-3-0-0-0-0-0-0-0---
E|-----------------------------

Stave 7:

E|------------------------------------------------------------------
B|------------------------------------------------------------------
G|------------------------------------------------------------------
D|-7-7-7-7-7-7-7-7-10-9-7-9-7-5-7-5-3-3-3-3-3-3-3-3-0-0-0-0-0-0-0-0-
A|------------------------------------------------------------------
E|------------------------------------------------------------------

Stave 8:

E|-7-7-7-7-7-7-7-7-10-9-7-9-7-5-7-5-3-3-3-3-3-3-3-3-0-0-0-0-2-2-2-2-
B|-7-7-7-7-7-7-7-7-10-9-7-9-7-5-7-5-3-3-3-3-3-3-3-3-0-0-0-0-2-2-2-2-
G|-7-7-7-7-7-7-7-7-10-9-7-9-7-5-7-5-3-3-3-3-3-3-3-3-0-0-0-0-2-2-2-2-
D|-7-7-7-7-7-7-7-7-10-9-7-9-7-5-7-5-3-3-3-3-3-3-3-3-0-0-0-0-2-2-2-2-
A|-7-7-7-7-7-7-7-7-10-9-7-9-7-5-7-5-3-3-3-3-3-3-3-3-0-0-0-0-2-2-2-2-
E|------------------------------------------------------------------

Stave 9:

E|-0---------
B|-7---------
G|-0---------
D|-7---------
A|-0---------
E|-----------

http://www.guitartabcreator.com
Guitar Tab Creator is intended to store guitar tab created through the tool. It currently does not support in-line text editing. Any text you place in here will be lost. If you need to comment on your tab, please use the "Tab Notes" section located below.