Sound will begin in 5 seconds

Blues style

01234567891011121314151617181920212223
E
B
G
D
A
E
B
0 1 2 3 4 5 6 7 8 9 10 11 12 13 14 15 16 17 18 19 20 21 22 23
Song Science #1: How Pros Use 6 Chords to Write Hit Songs
(/) Slide Up  (\) Slide Down  (h) Hammer On  (p) Pull Off  (b) Bend (r) Release (v) Vibrato

Stave 1:

E|-------------3---------------------------------------3-----3p0--5/6--5--3--
B|-------3--------5--3p0----------2--0-----------3--------5-------5-6--5--3--
G|--2/4-----4-------------2p0-----2--1------2/4-----4------------------------
D|-----------------------------2--------2v-----------------------------------
A|---------------------------------------------------------------------------
E|---------------------------------------------------------------------------

Stave 2:

E|--------------------------------------------------------------------------------
B|--------------------------------------------------------------------------------
G|-------------0------------------------1-------------0------------------------4--
D|-------0--------2---------------------2-------0--------2---------------------6--
A|--0h2-----2--------2p0----------0-----2--0h2-----2--------2p0----------0-----7--
E|------------------------3p0--0-----0--0------------------------3p0--0-----0-----

Stave 3:

E|--------------------------------------------------------------------------------------
B|--------------------------------------------------------------------------------------
G|--------------------------------------------------------------------------------------
D|--------------2/5--2--------------7--5--------------2/4--2----------------------------
A|--2--2--4--2--2-5--2--2--2--4--2--7--5--2--2--4--2--2-4--2------------0---------------
E|--0--0--0--0----------0--0--0--0--------0--0--0--0----------0--3b--0-----3v--4--3--2--

Stave 4:

E|-----------------------------------------------------------------------------------
B|-----------------------------------------------------------------------------------
G|-----------------------------------------------------------------------------------
D|--2--2--4--2--2--2----2--2--4--2--7--5----2--2--4--2--2--2-------7--7--5-----------
A|--0--0--0--0--3--0----0--0--0--0--5--3----0--0--0--0--3--0----0--5--5--3--7--6--5--
E|-----------------------------------------------------------------------------------

Stave 5:

E|-------------------------------------------------------------
B|-------------------------------------------------------------
G|--2--2----2-----------------------------------------------4--
D|--2--2----2----5--5----5----------------------------------5--
A|--0--0----0----5--5----5---------------0--------2p0-------7--
E|---------------3--3----3----0--0--3p0-----0--0-------3p0-----

http://www.guitartabcreator.com
Guitar Tab Creator is intended to store guitar tab created through the tool. It currently does not support in-line text editing. Any text you place in here will be lost. If you need to comment on your tab, please use the "Tab Notes" section located below.