Sound will begin in 5 seconds

Because The Night Solo

Chords
01234567891011121314151617181920212223
E
B
G
D
A
E
B
0 1 2 3 4 5 6 7 8 9 10 11 12 13 14 15 16 17 18 19 20 21 22 23
Song Science #1: How Pros Use 6 Chords to Write Hit Songs
(/) Slide Up  (\) Slide Down  (h) Hammer On  (p) Pull Off  (b) Bend (r) Release (v) Vibrato

Stave 1:

E|--------------------------------------------------10h12p10------10--
B|------10--12------10--12------10--12------10--12------------12------
G|--11----------11----------11----------11----------------------------
D|--------------------------------------------------------------------
A|--------------------------------------------------------------------
E|--------------------------------------------------------------------

Stave 2:

E|-------------------------------------------------
B|--7-----7-----9------9------10-----10-----12-----
G|--9b11--9b11--11b13--11b13--12b14--12b14--14b16--
D|-------------------------------------------------
A|-------------------------------------------------
E|-------------------------------------------------

Stave 3:

E|---------------------------------------------------------------------------
B|--0--0--0--0--3--0--0--5--0--0--0--0--3--0--0--5--0--0--0--0--3--0--0--7v--
G|---------------------------------------------------------------------------
D|---------------------------------------------------------------------------
A|---------------------------------------------------------------------------
E|---------------------------------------------------------------------------

Stave 4:

E|------------------------------------------------------------------------
B|--0h3h5--0h3h5--0h3h5--0h3h5--0h3h5--0h5h7--0h5h7--0h5h7--0h5h7--0h5h7--
G|------------------------------------------------------------------------
D|------------------------------------------------------------------------
A|------------------------------------------------------------------------
E|------------------------------------------------------------------------

Stave 5:

E|----------------------------------------------------------7------7------
B|--0h7h10--0h7h10--0h7h10--0h7h10--0h7h10--0h7h10--0h7h10--10b12--10b12--
G|------------------------------------------------------------------------
D|------------------------------------------------------------------------
A|------------------------------------------------------------------------
E|------------------------------------------------------------------------

http://www.guitartabcreator.com
Guitar Tab Creator is intended to store guitar tab created through the tool. It currently does not support in-line text editing. Any text you place in here will be lost. If you need to comment on your tab, please use the "Tab Notes" section located below.