Sound will begin in 5 seconds

Arpeggios

01234567891011121314151617181920212223
E
B
G
D
A
E
B
0 1 2 3 4 5 6 7 8 9 10 11 12 13 14 15 16 17 18 19 20 21 22 23
Song Science #1: How Pros Use 6 Chords to Write Hit Songs
(/) Slide Up  (\) Slide Down  (h) Hammer On  (p) Pull Off  (b) Bend (r) Release (v) Vibrato

Stave 1:

E|---------------------------------------------------0---
B|---8---------------8-------------------------------0---
G|---9-----------9-------9-----------6-----------6-------
D|-----------9---------------9-------7-------7-----------
A|-------7-----------------------7-------7---------------
E|---0-------------------------------5-------------------

Stave 2:

E|---------------------------------------------------0---
B|---8---------------8-------------------------------0---
G|---9-----------9-------9-----------6-----------6-------
D|-----------9---------------9-------7-------7-----------
A|-------7-----------------------7-------7---------------
E|---0-------------------------------5-------------------

Stave 3:

E|---------------------------------------------------0---
B|---8---------------8---------------3---------------3---
G|---9-----------9-------9-----------------------4-------
D|-----------9---------------9-------5-------5-----------
A|-------7-----------------------7-------5---------------
E|---0-------------------------------0-------------------

Stave 4:

E|-------------------0-----------------------------------------
B|-------------------0-------------------------------1---------
G|---3-----------3-------3-----------2-----------2---0h2-------
D|---4-------4---------------4-------3-------3-----------------
A|-------4-----------------------4-------3---------------------
E|---2-------------------------------1-------------------------

Stave 5:

E|---------------------------------------
B|---------------------------------------
G|---12---7---2---1------7---2---1---1---
D|---14---9---4---2------9---4---2---2---
A|---14---9---4---2------9---4---2---2---
E|---------------------------------------

Stave 6:

E|---------------------------------------
B|---------------------------------------
G|---7---2---6---1------7---11---6---1---
D|---9---4---7---2------9---12---7---2---
A|---9---4---7---2------9---12---7---2---
E|---------------------------------------

Stave 7:

E|-------
B|-------
G|---7---
D|---9---
A|---9---
E|-------

Stave 8:

E|-------------------------------------------------------------------
B|-----------3-------------------------------3-----------------------
G|-------4-------4-----------------------4-------4-------------------
D|-------------------2---4---------------------------2---4-----------
A|---2-----------------------5---2---2-----------------------5---2---
E|-------------------------------------------------------------------

Stave 9:

E|-------------------------------------------------------------------
B|-----------3-------------------------------3-----------------------
G|-------4-------4-----------------------4-------4-------------------
D|-------------------2---4---------------------------2---4-----------
A|---0-----------------------5---2---0-----------------------5---2---
E|-------------------------------------------------------------------

Stave 10:

E|-------------------------------------------------------------------
B|-----------3-------------------------------3-----------------------
G|-------4-------4-----------------------4-------4-------------------
D|---6---------------2---4-----------6---------------2---4-----------
A|---------------------------5---2---------------------------5---2---
E|-------------------------------------------------------------------

Stave 11:

E|-------------------------------------------------------------------
B|-----------3-------------------------------3-----------------------
G|-------4-------4-----------------------4-------4-------------------
D|---5---------------2---4---------------------------2---4-----------
A|---------------------------5---2---0-----------------------5---2---
E|-------------------------------------------------------------------

Stave 12:

E|-----------0------------0------------0-----------0---
B|-----------3------------10-----------0-----------0---
G|-----------4------------11-----------6-----------1---
D|-------4-----------11----------------7-----------2---
A|---2-----------9-----------------7-----------2-------
E|-----------------------------5-----------0-----------

http://www.guitartabcreator.com
Guitar Tab Creator is intended to store guitar tab created through the tool. It currently does not support in-line text editing. Any text you place in here will be lost. If you need to comment on your tab, please use the "Tab Notes" section located below.