Sound will begin in 5 seconds

Alien

Chords
01234567891011121314151617181920212223
E
B
G
D
A
E
B
0 1 2 3 4 5 6 7 8 9 10 11 12 13 14 15 16 17 18 19 20 21 22 23
Song Science #1: How Pros Use 6 Chords to Write Hit Songs
(/) Slide Up  (\) Slide Down  (h) Hammer On  (p) Pull Off  (b) Bend (r) Release (v) Vibrato

Stave 1:

E|----------------------------------------------------------------------------------------
B|----------------------------------------------------------------------------------------
G|-------------9--------------------12--------------------9---------12--10--9-------------
D|--10--9--10-----10--9--10--9--10------10--9--10--9--10-----10--9-------------12--10--9--
A|--0-------------------------------------------------------------------------------------
E|----------------------------------------------------------------------------------------

Stave 2:

E|------------------------------------------------------------------------
B|------------------------------------------------------------------------
G|--------------------------------------------10--10--10--10--9--9--9--9--
D|--10--10--10--9--10--10--10--10--9--10--10--10--10--10--10--9--9--9--9--
A|--0---0---0---0--0---0---0---0---0--0---0---8---8---8---8---7--7--7--7--
E|------------------------------------------------------------------------

Stave 3:

E|--------------------------------------------------------------------------------------
B|--------------------------------------------------------------------------------------
G|--9---9---9---7---9---9---9---7---9---9---10--10--10--12--10--------------------------
D|--10--10--10--10--10--10--10--10--10--10--10--10--10----------6--6--6--6--7--6--6-----
A|--0-----------------------------------------------------------7--7--7--7--7--7--7--0--
E|--------------------------------------------------------------------------------------

Stave 4:

E|--
B|--
G|--
D|--
A|--
E|--

Stave 5:

E|-------------------------------------------------------------------------------------------
B|-------------------------------------------------------------------------------------------
G|-------------------------------------------------------------------------------------------
D|--9--9--10--10--9--9--10--10--9--9--10--10--9--9--10--10-----------------------------------
A|--8--8--8---8---8--8--8---8---7--7--7---7---7--7--7---7---7--7-----3--5--7--7--7-----5--7--
E|----------------------------------------------------------5--5--0--1--3--5--5--5--0--3--5--

Stave 6:

E|--------------------------------------------------------------------------------------------
B|--------------------------------------------------------------------------------------------
G|-------------9--------------------12--------------------9---------12--10--9-----------------
D|--10--9--10-----10--9--10--9--10------10--9--10--9--10-----10--9-------------12--10--9--10--
A|--0-------------------------------------------------------------------------------------0---
E|--------------------------------------------------------------------------------------------

Stave 7:

E|----------------------------------------------------------------------------------------
B|----------------------------------------------------------------------------------------
G|---------9--------------------12--------------------9---------12--10--9-----------------
D|--9--10-----10--9--10--9--10------10--9--10--9--10-----10--9-------------10--9----------
A|--------------------------------------------------------------------------------11--12--
E|----------------------------------------------------------------------------------------

Stave 8:

E|-------------------------------------------------------------------------------------
B|--------------------------------------------------10----------------10---------------
G|------------------------------------------------------9------9--10------9------------
D|--3--3--3--3--3--3--3--3--2--2--2--2--2--2--2--2---------10----------------10--9--6--
A|--3--3--3--3--3--3--3--3--2--2--2--2--2--2--2--2-------------------------------------
E|--1--1--1--1--1--1--1--1--0--0--0--0--0--0--0--0-------------------------------------

Stave 9:

E|--------------------------------------------------------------------------------------------------
B|--------------------------------------------------------------------------------------------------
G|--------------------------------------------------------------------------------------------------
D|--3--3--3--3--3--3--3--3--2--2--2--2--2--2--2--2-----9-----9-----9-----9------10------10------10--
A|--3--3--3--3--3--3--3--3--2--2--2--2--2--2--2--2--------------------------------------------------
E|--1--1--1--1--1--1--1--1--0--0--0--0--0--0--0--0--8-----8-----8-----8-----10------10------10------

Stave 10:

E|--------------------------------------------------------------------------------------------------
B|--------------------------------------------------------------------------------------------------
G|----------------------------------------------------------13--13--13--13--13--13--13--14--14--13--
D|------10--3--3--3--3--3--3--3--3--2--2--2--2--2--2--2--2------------------------------------------
A|----------3--3--3--3--3--3--3--3--2--2--2--2--2--2--2--2--11--11--11--11--11--11--11--12--12--11--
E|--10------1--1--1--1--1--1--1--1--0--0--0--0--0--0--0--0--0---0---0---0---0---0---0---0---0---0---

Stave 11:

E|--
B|--
G|--
D|--
A|--
E|--

Stave 12:

E|--
B|--
G|--
D|--
A|--
E|--

Stave 13:

E|--
B|--
G|--
D|--
A|--
E|--

Stave 14:

E|-------------------------------------------------------------------------------------------------------
B|-------------------------------------------------------------------------------------------------------
G|--------------------------------------------------------9--10--10------12--12------10--9--10--9--7--9--
D|--9--10--10--12--12--14--12--10--9--10--10--12--12--10-------------------------------------------------
A|--0--0---0---0---0---0---0---0-------------------------------------------------------------------------
E|---------------------------------8--8---8---8---8---8---8--10--10--10----------10------8---------7-----

Stave 15:

E|--------------------------------------------------
B|--------------------------------------------------
G|--7--5--5-----5--5--7-----7--8--7--5-----4--5--4--
D|--------------------------------------------------
A|--------------------------------------------------
E|-----5--5--5-----4-----4--------------4--3-----3--

Stave 16:

E|--
B|--
G|--
D|--
A|--
E|--

Stave 17:

E|--
B|--
G|--
D|--
A|--
E|--

Stave 18:

E|--
B|--
G|--
D|--
A|--
E|--

Stave 19:

E|--
B|--
G|--
D|--
A|--
E|--

Stave 20:

E|--------------------------------------------------------------------
B|--------------------------------------------------------------------
G|--9--9--9--9--9--9--10--10--10--10--10--10--12--12--12--10--10--10--
D|--------------------------------------------------------------------
A|--------------------------------------------------------------------
E|--8--8--8--8--8--8--10--10--10--10--10--10--10--10--10--10--10--10--

Stave 21:

E|--10--10--10--12--12--12--10--10--10--12--12--12--13--13--13--12--12--12--
B|--10--10--10--12--12--12--10--10--10--10--10--10--10--10--10--10--10--10--
G|--9---9---9---9---9---9---9---9---9---10--10--10--10--10--10--10--10--10--
D|--------------------------------------------------------------------------
A|--------------------------------------------------------------------------
E|--8---8---8---8---8---8---8---8---8---10--10--10--10--10--10--10--10--10--

Stave 22:

E|-----
B|-----
G|-----
D|--7--
A|--7--
E|--5--

http://www.guitartabcreator.com
Guitar Tab Creator is intended to store guitar tab created through the tool. It currently does not support in-line text editing. Any text you place in here will be lost. If you need to comment on your tab, please use the "Tab Notes" section located below.