HML Outro

01234567891011121314151617181920212223
E
B
G
D
A
E
B
0 1 2 3 4 5 6 7 8 9 10 11 12 13 14 15 16 17 18 19 20 21 22 23
(/) Slide Up  (\) Slide Down  (h) Hammer On  (p) Pull Off  (b) Bend (r) Release (v) Vibrato

Stave 1:

E|-------------------------------
B|-------------------------------
G|-------------------------------
D|----------------6--5--5--5--5--
A|---------5h7h8-----------------
E|--0h3h6------------------------

Stave 2:

E|----------12--------------
B|----------12--------------
G|----------12--------------
D|--------------------------
A|------12------------------
E|--12----------7--6--5--5--

							http://www.guitartabcreator.com
Chords

Instruments
{"strings":[[[".",".",".",".",".",".",".",".",".",".",".",".",".",".","."],[".",".",".",".",".",".",".",".",".",".",".",".",".",".","."],[".",".",".",".",".",".",".",".",".",".",".",".",".",".","."],[".",".",".",".",".",".",".",".",".",".",6,5,5,5,5],[".",".",".",".",".",5,"h",7,"h",8,".",".",".",".","."],[0,"h",3,"h",6,".",".",".",".",".",".",".",".",".","."]],[[".",".",12,".",".",".","."],[".",".",12,".",".",".","."],[".",".",12,".",".",".","."],[".",".",".",".",".",".","."],[".",12,".",".",".",".","."],[12,".",".",7,6,5,5]]],"numberofstrings":6,"notes":["E","B","G","D","A","E","B"],"capo":0,"stringnotes":["E4","B3","G3","D3","A2","E2"],"comments":["Stave 1:","Stave 2:"],"timing":[[null,null,null,null,null,null,null,null,null,null,null,null,null,null,null,null],[null,null,null,null,null,null,null]],"timingvisible":false,"tabcounter":7,"stave":1,"totalstaves":2,"instrument":"6guitar","selectedtuning":"6_standard","version":"13"}

Member for

1 month 3 weeks
Submitted by matthewurquhart on Tue, 2020-11-24 09:47