Last Christmas

Chords

01234567891011121314151617181920212223
E
B
G
D
A
E
B
0 1 2 3 4 5 6 7 8 9 10 11 12 13 14 15 16 17 18 19 20 21 22 23
(/) Slide Up  (\) Slide Down  (h) Hammer On  (p) Pull Off  (b) Bend (r) Release (v) Vibrato

Chorus (2x):

E|--------------------------------------------------------------------------------------------
B|-----------------0--------------------------------0--------0--1--0--------------------------
G|--2--2--0--0--2-----2--0-----0-----0-----0-----------2--2-----------2-----0--------0--------
D|--------------------------4-----4-----4-----4--2-----------------------4-----4--4-----4--0--
A|--------------------------------------------------------------------------------------------
E|--------------------------------------------------------------------------------------------

Verse (2x)

E|--------------------------------------------0-----------------------------------------------------------------
B|--------------3--0-----------------------------0--------0-----------0-----------------------------------------
G|--2--2--0--0--------2--0--2--2--2--2--0--0--------2--0-----0--0--2--------0--2--------------0-----0-----------
D|-----------------------------------------------------------------------0--------4--4--4--4-----4-----4--2--0--
A|--------------------------------------------------------------------------------------------------------------
E|--------------------------------------------------------------------------------------------------------------

							http://www.guitartabcreator.com
Tab Notes
Song form: Chorus Verse Chorus
Instruments
{"strings":[[[".",".",".",".",".",".",".",".",".",".",".",".",".",".",".",".",".",".",".",".",".",".",".",".",".",".",".",".",".","."],[".",".",".",".",".",0,".",".",".",".",".",".",".",".",".",".",0,".",".",0,1,0,".",".",".",".",".",".",".","."],[2,2,0,0,2,".",2,0,".",0,".",0,".",0,".",".",".",2,2,".",".",".",2,".",0,".",".",0,".","."],[".",".",".",".",".",".",".",".",4,".",4,".",4,".",4,2,".",".",".",".",".",".",".",4,".",4,4,".",4,0],[".",".",".",".",".",".",".",".",".",".",".",".",".",".",".",".",".",".",".",".",".",".",".",".",".",".",".",".",".","."],[".",".",".",".",".",".",".",".",".",".",".",".",".",".",".",".",".",".",".",".",".",".",".",".",".",".",".",".",".","."]],[[".",".",".",".",".",".",".",".",".",".",".",".",".",".",0,".",".",".",".",".",".",".",".",".",".",".",".",".",".",".",".",".",".",".",".","."],[".",".",".",".",3,0,".",".",".",".",".",".",".",".",".",0,".",".",0,".",".",".",0,".",".",".",".",".",".",".",".",".",".",".",".","."],[2,2,0,0,".",".",2,0,2,2,2,2,0,0,".",".",2,0,".",0,0,2,".",".",0,2,".",".",".",".",0,".",0,".",".","."],[".",".",".",".",".",".",".",".",".",".",".",".",".",".",".",".",".",".",".",".",".",".",".",0,".",".",4,4,4,4,".",4,".",4,2,0],[".",".",".",".",".",".",".",".",".",".",".",".",".",".",".",".",".",".",".",".",".",".",".",".",".",".",".",".",".",".",".",".",".",".",".","."],[".",".",".",".",".",".",".",".",".",".",".",".",".",".",".",".",".",".",".",".",".",".",".",".",".",".",".",".",".",".",".",".",".",".",".","."]]],"numberofstrings":6,"notes":["E","B","G","D","A","E","B"],"capo":0,"stringnotes":["E4","B3","G3","D3","A2","E2"],"comments":["Chorus (2x):","Verse (2x)","Stave 3:"],"timing":[["W","W","W","W","W","W","W","W","W","W","W","W","W","W","W","W","W","W","W","W","W","W","W","W","W","W","W","W","W","W","W"],["W","W","W","W","W","W","W","W","W","W","W","W","W","W","W","W","W","W","W","W","W","W","W","W","W","W","W","W","W","W","W","W","W","W","W","W"],[]],"timingvisible":false,"tabcounter":0,"totalstaves":2,"instrument":"6guitar","selectedtuning":"6_standard","version":"13"}

Member for

2 weeks 4 days
Submitted by matthewalleymusic on Fri, 2020-11-20 10:58