Jingle Bells

Chords

01234567891011121314151617181920212223
E
B
G
D
A
E
B
0 1 2 3 4 5 6 7 8 9 10 11 12 13 14 15 16 17 18 19 20 21 22 23
(/) Slide Up  (\) Slide Down  (h) Hammer On  (p) Pull Off  (b) Bend (r) Release (v) Vibrato

Chorus:

E|-----------------------------------------------------------------------------------------------------------------------------------------------------
B|--0--0--0--0--0--0--0--3--------0--1--1--1--1--1--0--0--0--0--------0-----3--0--0--0--0--0--0--0--3--------0--1--1--1--1--1--0--0--0--3--3--0--------
G|--------------------------0--2--------------------------------2--2-----2-----------------------------0--2--------------------------------------2--0--
D|-----------------------------------------------------------------------------------------------------------------------------------------------------
A|-----------------------------------------------------------------------------------------------------------------------------------------------------
E|-----------------------------------------------------------------------------------------------------------------------------------------------------

Verse:

E|--------------------------------------------------------------------------------------------------------------------------0--0--------------
B|-----0-----------------0--------------1--0--------3--3--1-----0-----0-----------------0--------------1--0-----3--3--3--3--------1--------3--
G|--------2--0--------------2--0--------------2--------------2-----------2--0--------------2--0--------------2-----------------------2--0-----
D|--0-----------0--0--0-----------2--2-----------4-----------------0-----------0--0--0-----------2--2-----------------------------------------
A|--------------------------------------------------------------------------------------------------------------------------------------------
E|--------------------------------------------------------------------------------------------------------------------------------------------

							http://www.guitartabcreator.com
Instruments
{"strings":[[[".",".",".",".",".",".",".",".",".",".",".",".",".",".",".",".",".",".",".",".",".",".",".",".",".",".",".",".",".",".",".",".",".",".",".",".",".",".",".",".",".",".",".",".",".",".",".",".","."],[0,0,0,0,0,0,0,3,".",".",0,1,1,1,1,1,0,0,0,0,".",".",0,".",3,0,0,0,0,0,0,0,3,".",".",0,1,1,1,1,1,0,0,0,3,3,0,".","."],[".",".",".",".",".",".",".",".",0,2,".",".",".",".",".",".",".",".",".",".",2,2,".",2,".",".",".",".",".",".",".",".",".",0,2,".",".",".",".",".",".",".",".",".",".",".",".",2,0],[".",".",".",".",".",".",".",".",".",".",".",".",".",".",".",".",".",".",".",".",".",".",".",".",".",".",".",".",".",".",".",".",".",".",".",".",".",".",".",".",".",".",".",".",".",".",".",".","."],[".",".",".",".",".",".",".",".",".",".",".",".",".",".",".",".",".",".",".",".",".",".",".",".",".",".",".",".",".",".",".",".",".",".",".",".",".",".",".",".",".",".",".",".",".",".",".",".","."],[".",".",".",".",".",".",".",".",".",".",".",".",".",".",".",".",".",".",".",".",".",".",".",".",".",".",".",".",".",".",".",".",".",".",".",".",".",".",".",".",".",".",".",".",".",".",".",".","."]],[[".",".",".",".",".",".",".",".",".",".",".",".",".",".",".",".",".",".",".",".",".",".",".",".",".",".",".",".",".",".",".",".",".",".",".",".",".",".",".",".",0,0,".",".",".","."],[".",0,".",".",".",".",".",0,".",".",".",".",1,0,".",".",3,3,1,".",0,".",0,".",".",".",".",".",0,".",".",".",".",1,0,".",3,3,3,3,".",".",1,".",".",3],[".",".",2,0,".",".",".",".",2,0,".",".",".",".",2,".",".",".",".",2,".",".",".",2,0,".",".",".",".",2,0,".",".",".",".",2,".",".",".",".",".",".",".",2,0,"."],[0,".",".",".",0,0,0,".",".",".",2,2,".",".",".",4,".",".",".",".",".",0,".",".",".",0,0,0,".",".",".",2,2,".",".",".",".",".",".",".",".",".",".",".",".","."],[".",".",".",".",".",".",".",".",".",".",".",".",".",".",".",".",".",".",".",".",".",".",".",".",".",".",".",".",".",".",".",".",".",".",".",".",".",".",".",".",".",".",".",".",".","."],[".",".",".",".",".",".",".",".",".",".",".",".",".",".",".",".",".",".",".",".",".",".",".",".",".",".",".",".",".",".",".",".",".",".",".",".",".",".",".",".",".",".",".",".",".","."]]],"numberofstrings":6,"notes":["E","B","G","D","A","E","B"],"capo":0,"stringnotes":["E4","B3","G3","D3","A2","E2"],"comments":["Chorus:","Verse:"],"timing":[["W","W","W","W","W","W","W","W","W","W","W","W","W","W","W","W","W","W","W","W","W","W","W","W","W","W","W","W","W","W","W","W","W","W","W","W","W","W","W","W","W","W","W","W","W","W","W","W","W"],["W","W","W","W","W","W","W","W","W","W","W","W","W","W","W","W","W","W","W","W","W","W","W","W","W","W","W","W","W","W","W","W","W","W","W","W","W","W","W","W","W","W","W","W","W","W","W"]],"timingvisible":false,"tabcounter":46,"stave":1,"totalstaves":2,"instrument":"6guitar","selectedtuning":"6_standard","version":"13"}

Member for

2 weeks 1 day
Submitted by matthewalleymusic on Fri, 2020-11-20 11:20