Speed excercise 1

01234567891011121314151617181920212223
E
B
G
D
A
E
B
0 1 2 3 4 5 6 7 8 9 10 11 12 13 14 15 16 17 18 19 20 21 22 23
(/) Slide Up  (\) Slide Down  (h) Hammer On  (p) Pull Off  (b) Bend (r) Release (v) Vibrato

In 1 Place

E|-----------------------------------------------------------
B|-----------------------------------------------------------
G|-----------------------------------------------------------
D|-----------5-----------------5-----------------5-----------
A|--5--6--8-----8--6--5--6--8-----8--6--5--6--8-----8--6--5--
E|-----------------------------------------------------------

Moving Up The Neck

E|------------------------------------------------------------------------------------7---------7--8--10--
B|-----------------------------------------------------------------6--------6--8--10-----10--8------------
G|-----------------------------------------------5--------5--7--9-----9--7--------------------------------
D|-----------------------------5--------5--7--9-----9--7--------------------------------------------------
A|-----------5--------5--7--8-----8--7--------------------------------------------------------------------
E|--5--7--8-----8--7--------------------------------------------------------------------------------------

Moving Down The Neck

E|-----------5--------------------------------------------------------------------------------
B|--5--6--8-----8--6-----------6--------------------------------------------------------------
G|--------------------5--7--9-----9--7-----------5--------------------------------------------
D|--------------------------------------5--7--9-----9--7-----------5--------------------------
A|--------------------------------------------------------5--7--8-----8--7-----------5--------
E|--------------------------------------------------------------------------5--7--8-----8--7--

Between 3 Strings Up and Down

E|--------------------------------------------------------------------------
B|--------------------------------------------------------------------------
G|-----------------------------5-----------------------------------5--------
D|-----------5--------5--7--9-----9--7-----------5--------5--7--9-----9--7--
A|--5--7--8-----8--7--------------------5--7--8-----8--7--------------------
E|--------------------------------------------------------------------------

							http://www.guitartabcreator.com
Chords

Instruments
{"strings":[[[".",".",".",".",".",".",".",".",".",".",".",".",".",".",".",".",".",".","."],[".",".",".",".",".",".",".",".",".",".",".",".",".",".",".",".",".",".","."],[".",".",".",".",".",".",".",".",".",".",".",".",".",".",".",".",".",".","."],[".",".",".",5,".",".",".",".",".",5,".",".",".",".",".",5,".",".","."],[5,6,8,".",8,6,5,6,8,".",8,6,5,6,8,".",8,6,5],[".",".",".",".",".",".",".",".",".",".",".",".",".",".",".",".",".",".","."]],[[".",".",".",".",".",".",".",".",".",".",".",".",".",".",".",".",".",".",".",".",".",".",".",".",".",".",".",7,".",".",7,8,10],[".",".",".",".",".",".",".",".",".",".",".",".",".",".",".",".",".",".",".",".",".",6,".",".",6,8,10,".",10,8,".",".","."],[".",".",".",".",".",".",".",".",".",".",".",".",".",".",".",5,".",".",5,7,9,".",9,7,".",".",".",".",".",".",".",".","."],[".",".",".",".",".",".",".",".",".",5,".",".",5,7,9,".",9,7,".",".",".",".",".",".",".",".",".",".",".",".",".",".","."],[".",".",".",5,".",".",5,7,8,".",8,7,".",".",".",".",".",".",".",".",".",".",".",".",".",".",".",".",".",".",".",".","."],[5,7,8,".",8,7,".",".",".",".",".",".",".",".",".",".",".",".",".",".",".",".",".",".",".",".",".",".",".",".",".",".","."]],[[".",".",".",5,".",".",".",".",".",".",".",".",".",".",".",".",".",".",".",".",".",".",".",".",".",".",".",".",".","."],[5,6,8,".",8,6,".",".",".",6,".",".",".",".",".",".",".",".",".",".",".",".",".",".",".",".",".",".",".","."],[".",".",".",".",".",".",5,7,9,".",9,7,".",".",".",5,".",".",".",".",".",".",".",".",".",".",".",".",".","."],[".",".",".",".",".",".",".",".",".",".",".",".",5,7,9,".",9,7,".",".",".",5,".",".",".",".",".",".",".","."],[".",".",".",".",".",".",".",".",".",".",".",".",".",".",".",".",".",".",5,7,8,".",8,7,".",".",".",5,".","."],[".",".",".",".",".",".",".",".",".",".",".",".",".",".",".",".",".",".",".",".",".",".",".",".",5,7,8,".",8,7]],[[".",".",".",".",".",".",".",".",".",".",".",".",".",".",".",".",".",".",".",".",".",".",".","."],[".",".",".",".",".",".",".",".",".",".",".",".",".",".",".",".",".",".",".",".",".",".",".","."],[".",".",".",".",".",".",".",".",".",5,".",".",".",".",".",".",".",".",".",".",".",5,".","."],[".",".",".",5,".",".",5,7,9,".",9,7,".",".",".",5,".",".",5,7,9,".",9,7],[5,7,8,".",8,7,".",".",".",".",".",".",5,7,8,".",8,7,".",".",".",".",".","."],[".",".",".",".",".",".",".",".",".",".",".",".",".",".",".",".",".",".",".",".",".",".",".","."]]],"numberofstrings":6,"notes":["E","B","G","D","A","E","B"],"capo":0,"stringnotes":["E4","B3","G3","D3","A2","E2"],"comments":["In 1 Place","Moving Up The Neck","Moving Down The Neck","Between 3 Strings Up and Down"],"timing":[["W","W","W","W","W","W","W","W","W","W","W","W","W","W","W","W","W","W","W"],["W","W","W","W","W","W","W","W","W","W","W","W","W","W","W","W","W","W","W","W","W","W","W","W","W","W","W","W","W","W","W","W","W"],["W","W","W","W","W","W","W","W","W","W","W","W","W","W","W","W","W","W","W","W","W","W","W","W","W","W","W","W","W","W"],["W","W","W","W","W","W","W","W","W","W","W","W","W","W","W","W","W","W","W","W","W","W","W","W"]],"timingvisible":false,"tabcounter":24,"stave":3,"totalstaves":4,"instrument":"6guitar","selectedtuning":"6_standard","version":"13"}

Member for

1 month 4 weeks
Submitted by Matthew Kerr on Sun, 2021-01-17 04:26