Moloko Plus

01234567891011121314151617181920212223
E
B
G
D
A
E
B
0 1 2 3 4 5 6 7 8 9 10 11 12 13 14 15 16 17 18 19 20 21 22 23
(/) Slide Up  (\) Slide Down  (h) Hammer On  (p) Pull Off  (b) Bend (r) Release (v) Vibrato

Stave 1:

E|-----------------------------
B|-----6-----------------------
G|--8--------6-----------------
D|--------7--------5-----------
A|--------------8--------6-----
E|--------------------8-----0--

Stave 2:

E|-----------------------------
B|-----6-----------------------
G|--8-----------6--------------
D|--------0--7--------5--------
A|-----------------8-----0--6--
E|-----------------------------

Stave 3:

E|-----------------------------
B|-----------------------8--6--
G|-----------------8--6--------
D|-----------7--5--------------
A|-----8--6--------------------
E|--6--------------------------

Stave 4:

E|-----------------------
B|-----------------------
G|--------------------8--
D|-----------0--7--5-----
A|-----8--6--------------
E|--6--------------------

							http://www.guitartabcreator.com
Chords

Instruments
{"strings":[[[".",".",".",".",".",".",".",".","."],[".",6,".",".",".",".",".",".","."],[8,".",".",6,".",".",".",".","."],[".",".",7,".",".",5,".",".","."],[".",".",".",".",8,".",".",6,"."],[".",".",".",".",".",".",8,".",0]],[[".",".",".",".",".",".",".",".","."],[".",6,".",".",".",".",".",".","."],[8,".",".",".",6,".",".",".","."],[".",".",0,7,".",".",5,".","."],[".",".",".",".",".",8,".",0,6],[".",".",".",".",".",".",".",".","."]],[[".",".",".",".",".",".",".",".","."],[".",".",".",".",".",".",".",8,6],[".",".",".",".",".",8,6,".","."],[".",".",".",7,5,".",".",".","."],[".",8,6,".",".",".",".",".","."],[6,".",".",".",".",".",".",".","."]],[[".",".",".",".",".",".","."],[".",".",".",".",".",".","."],[".",".",".",".",".",".",8],[".",".",".",0,7,5,"."],[".",8,6,".",".",".","."],[6,".",".",".",".",".","."]]],"numberofstrings":6,"notes":["E","B","G","D","A","E","B"],"capo":0,"stringnotes":["E4","B3","G3","D3","A2","E2"],"comments":["Stave 1:","Stave 2:","Stave 3:","Stave 4:"],"timing":[["W","W","W","W","W","W","W","W","W"],["W","W","W","W","W","W","W","W","W"],["W","W","W","W","W","W","W","W","W"],["W","W","W","W","W","W","W"]],"timingvisible":false,"tabcounter":7,"stave":3,"totalstaves":4,"instrument":"6guitar","selectedtuning":"6_standard","version":"13"}

Member for

7 months 2 weeks
About Me
I play guitar
Submitted by mattdc on Sun, 2021-02-21 03:43