Stern 2

01234567891011121314151617181920212223
E
B
G
D
A
E
B
0 1 2 3 4 5 6 7 8 9 10 11 12 13 14 15 16 17 18 19 20 21 22 23
(/) Slide Up  (\) Slide Down  (h) Hammer On  (p) Pull Off  (b) Bend (r) Release (v) Vibrato

Stave 1:

E|---------------------------------------------------------------------------------------
B|-------------------------------------------------------------------------------10--13--
G|-----------------------------------------------------------------9--12--9--11----------
D|--14--12--13--11--12--10--9------------------------9--12--9--10------------------------
A|-----------------------------12--10--9--12--9--10--------------------------------------
E|---------------------------------------------------------------------------------------

Stave 2:

E|--10--11------10---------------------------------------------------------------------------------------------
B|----------13------13--12--10---------------------------------------------------------------------------------
G|------------------------------12--11--9------8------------------------------------------------------------9--
D|-----------------------------------------12-----10--9--------------------------------------------------9-----
A|-------------------------------------------------------12--10--9--12--9--10------9----------9--10--12--------
E|-----------------------------------------------------------------------------11-----11--12-------------------

							http://www.guitartabcreator.com
Chords

Instruments
{"strings":[[[".",".",".",".",".",".",".",".",".",".",".",".",".",".",".",".",".",".",".",".",".",".","."],[".",".",".",".",".",".",".",".",".",".",".",".",".",".",".",".",".",".",".",".",".",10,13],[".",".",".",".",".",".",".",".",".",".",".",".",".",".",".",".",".",9,12,9,11,".","."],[14,12,13,11,12,10,9,".",".",".",".",".",".",9,12,9,10,".",".",".",".",".","."],[".",".",".",".",".",".",".",12,10,9,12,9,10,".",".",".",".",".",".",".",".",".","."],[".",".",".",".",".",".",".",".",".",".",".",".",".",".",".",".",".",".",".",".",".",".","."]],[[10,11,".",10,".",".",".",".",".",".",".",".",".",".",".",".",".",".",".",".",".",".",".",".",".",".",".",".","."],[".",".",12,".",13,12,10,".",".",".",".",".",".",".",".",".",".",".",".",".",".",".",".",".",".",".",".",".","."],[".",".",".",".",".",".",".",12,11,9,".",8,".",".",".",".",".",".",".",".",".",".",".",".",".",".",".",".",9],[".",".",".",".",".",".",".",".",".",".",12,".",10,9,".",".",".",".",".",".",".",".",".",".",".",".",".",9,"."],[".",".",".",".",".",".",".",".",".",".",".",".",".",".",12,10,9,12,9,10,".",9,".",".",9,10,12,".","."],[".",".",".",".",".",".",".",".",".",".",".",".",".",".",".",".",".",".",".",".",11,".",11,12,".",".",".",".","."]]],"numberofstrings":6,"notes":["E","B","G","D","A","E","B"],"capo":0,"stringnotes":["E4","B3","G3","D3","A2","E2"],"comments":["Stave 1:","Stave 2:"],"timing":[["W","W","W","W","W","W","W","W","W","W","W","W","W","W","W","W","W","W","W","W","W","W","W"],["W","W","W","W","W","W","W","W","W","W","W","W","W","W","W","W","W","W","W","W","W","W","W","W","W","W","W","W","W"]],"timingvisible":false,"tabcounter":29,"stave":1,"totalstaves":2,"instrument":"6guitar","selectedtuning":"6_standard","version":"13"}

Member for

1 month 3 weeks
Submitted by mattc on Tue, 2020-12-01 04:00