Don't Shake My Hand

01234567891011121314151617181920212223
E
B
G
D
A
E
B
0 1 2 3 4 5 6 7 8 9 10 11 12 13 14 15 16 17 18 19 20 21 22 23
(/) Slide Up  (\) Slide Down  (h) Hammer On  (p) Pull Off  (b) Bend (r) Release (v) Vibrato

Stave 1:

E|----------10--12b14r10------10----------------7-----------------------------7-------------------------------------------|-------------------|--
B|--12--12----------------12------12--10--7--------10--7------------------------------------------------------------------|--7----------------|--
G|--------------------------------------------------------9b11r7-----7--9b11-----9b11r7-----7--9--7--------7--------------|--7h9b10-----7-----|--
D|----------------------------------------------------------------9----------------------9-----------9--9-----9--7--------|----------------9--|--
A|------------------------------------------------------------------------------------------------------------------9--7--|-------------------|--
E|------------------------------------------------------------------------------------------------------------------------|-------------------|--

Stave 2:

E|------------------------------------------|------------------------------------|------------------------------|--
B|------------------------------------------|------------------------------------|------------------------------|--
G|------------------------------------------|--------------------------7---------|-----7--9--9b11r7--9-----7h9--|--
D|--7/9--7/9--7/9--7/9--7-------------------|---------------7----------7h9p7-----|--9-------------------9-------|--
A|-------------------------9--7-------------|---------7--9-----7/9---------------|------------------------------|--
E|-------------------------------10--7--10--|--7--10-----------------------------|------------------------------|--

Stave 3:

E|------------|-----------------------------------------|-------------------------------------------
B|--7---------|------------------7----7-----------------|-------------------------------------------
G|--9h11p9p7--|--7---------------7h9--7-----------------|-------------------------------------------
D|------------|--7h9p7-------------------9--9--7--------|--7-9--7-9--7-9--7-9--7b8------------------
A|------------|-----------------------------------9--7--|--7/9--7/9--7/9--7/9-------9--7------7--9--
E|------------|-----------------------------------------|---------------------------------10--------

Stave 4:

E|-----------------------------|---------------------------|---------------------------------------------------------------------------------------
B|-----------------------------|---------------7-----------|-----------7---------------------------------------------------------------------------
G|-----------7--9--9b11--9--7--|-----7---------7-----------|-----------7h9p7-----------------------------------------------------------------------
D|-----7--9--------------------9-----7h9p7--------------9--|-----7--9---------9--------7----------------------------------7--9-----7---------------
A|--9--------------------------|------------------7--9-----|--9---------------------------9--7------7---------------7--9--------------9--7---------
E|-----------------------------|---------------------------|------------------------------------10-----------7--10--------------------------10-----

Stave 5:

E|----------------------------------------------------------------------------------10-----------7-------------------------
B|------------------------------------------------------12------10h12--------10h12------12p10p7-----10--7------------------
G|--------------------------7--9--7--9h11p9p7-----9b11------11---------------------------------------------9h11p9p7-----7--
D|---------------7-----7/9---------------------9---------------------------------------------------------------------9-----
A|---------7--9-----9------------------------------------------------------------------------------------------------------
E|--7--10------------------------------------------------------------------------------------------------------------------

Stave 6:

E|--------7-------------------------------------------|----------------------------------------------
B|----------------------------------------------------|-----10/12-----10---------------7-------------
G|--9b11-----9b11r9r7-----7--9--7--------7------------|-------------------9b11r9r7-----7h9--7-----7--
D|---------------------9-----------9--9-----9p7-------|--9--------------------------9----------9-----
A|-----------------------------------------------9p7--|----------------------------------------------
E|----------------------------------------------------|----------------------------------------------

Stave 7:

E|----------------------------------------|-----------------------------------7------------7-------------------
B|--10/12--10---------------7-------------|-----7-9------------------------------7--10b12-----10--7------------
G|-------------9b11r9r7-----7h9--7--------|-----7h9--9b11r9r7-----9--7--9b11-------------------------9b11r9r7--
D|-----------------------9----------9--9--|--9-----------------9-----------------------------------------------
A|----------------------------------------|--------------------------------------------------------------------
E|----------------------------------------|--------------------------------------------------------------------

Stave 8:

E|-----------------------------------|--------------------------------------------------------------------------------------------------
B|-----------------------------------|--9-9---7-----------------------------------------------------------------------------------------
G|-----7h9--7------------------------|--9h11--7-----------------------------------------------------------------------------------------
D|--9----------9--9--7---------------|-----------9--7------------------------------------------------------------------------------7/9--
A|----------------------9--7------7--|-----------------9--7------7------7--9/12\9--7-------------7--9/12\9--7-------------7--9/12-------
E|----------------------------10-----|-----------------------10-----10----------------10--7--10----------------10--7--10----------------

Stave 9:

E|----------------------------|------------------------10--12--12b14r12r10------10---------------------------------
B|----------------------------|--12p10------10--10/12-----------------------12------12--10\7-----------------------
G|----------------------------|---------11----------------------------------------------------9\7-----7--9b11r9r7--
D|--7/9--7/9--7/9p7-----7--9--|--------------------------------------------------------------------9---------------
A|-------------------9--------|------------------------------------------------------------------------------------
E|----------------------------|------------------------------------------------------------------------------------

Stave 10:

E|--------7-------------------------------------------------|------------------------------------7---------------
B|----------------------------------------------------------|-----7--7-------------------------------------------
G|--9b11-----9b11r9--7-----7h9--7--------7------------------|-----7--9--9h11r9r7--9-----7--9b11-----9b11r9r7-----
D|----------------------9----------9--9-----9--7------------|--9---------------------9------------------------9--
A|------------------------------------------------9--7------|----------------------------------------------------
E|------------------------------------------------------10--|----------------------------------------------------

Stave 11:

E|-----------------------------|---------------------------------------7-------------------------------------
B|-----------------------------|-----7--7--------------------------------------------------------------------
G|--7h9--7-------------7-------|-----7--9--9h11r9r7--9-----7--9--9b11-----9b11r9r7-----7h9--7--------7-------
D|----------9--9--7h9-----9p7--|--9---------------------9---------------------------9----------9--9-----9p7--
A|-----------------------------|-----------------------------------------------------------------------------
E|-----------------------------|-----------------------------------------------------------------------------

Stave 12:

E|-----------|------------------------------------7------------7--------------------------------------
B|-----------|-----7--7------------------------------7--10b12-----10p7--------------------------------
G|-----------|-----7--9--9b11r9r7--9-----7--9b11------------------------9b11r9r7-----7h9--7--------7--
D|-----------|--9---------------------9-------------------------------------------9----------9--9-----
A|--9p7------|----------------------------------------------------------------------------------------
E|-------10--|----------------------------------------------------------------------------------------

Stave 13:

E|-----------------------------------------------------------------------------------------------
B|-----7--9--------------7--9--------------7--9--------------9-11--9--------------7--9-----------
G|-----7--9--7-----------7--9--7-----------7--9--7-----------9/11--9--7-----------7--9--7--------
D|--9-----------9--7--------------9--7--------------9--7-----------------9--7--------------9--7--
A|-----------------------------------------------------------------------------------------------
E|-----------------------------------------------------------------------------------------------

Stave 14:

E|--------------7---------------7-----10b12r10--7---------------------------------7--10b12--|--
B|-----------------10--7-----------7---------------10--7-----------------------7------------|--
G|-----7--9b11------------9b11----------------------------9b11r9r7-----7h9b11---------------|--
D|--9---------------------------------------------------------------9-----------------------|--
A|------------------------------------------------------------------------------------------|--
E|------------------------------------------------------------------------------------------|--

Stave 15:

E|---------7--------------------------------7---------------7------------7---------------------------------------------|--
B|--10b12-----10--7------------------10b12-----10--7-----------7--10b12-----10--7--------------------------------------|--
G|-------------------9b11r9r7-------------------------9b11-------------------------9b11r9r7-----7h9--7-----------------|--
D|-------------------------------------------------------------------------------------------9----------9--9--7--------|--
A|---------------------------------------------------------------------------------------------------------------9--7--|--
E|---------------------------------------------------------------------------------------------------------------------|--

Stave 16:

E|------------------------------------------------------7----------------------------------------------|--
B|--7------------7-------------------------------------------------------------------------------------|--
G|--7h9p7--------7h9p7--9-----7--9b11r9--7-----7--9b11-----9b11r9--7-----7h9--7------------------------|--
D|-------------------------9----------------9-------------------------9----------9--9--7---------------|--
A|----------------------------------------------------------------------------------------9--7------7--|--
E|----------------------------------------------------------------------------------------------10-----|--

Stave 17:

E|------------------------|-----------------------|-----------------------------------------------|--
B|--------12-----7--7-----|-----------------------|-----------------------------------------------|--
G|--9/11--11-----9--7-----|-----------------------|-----7--7--------------------------------------|--
D|------------------------|-------7h9b10--7-------|-----7--9--9h11r9p7-----7--9b11r9p7------------|--
A|---------------------9--|--7h9-------------9p7--|--9------------------9---------------9--7------|--
E|------------------------|-----------------------|-------------------------------------------10--|--

Stave 18:

E|-----------------------------|---------------------------------7-------------7--------------------------------------------
B|--------------------7--------|-----7--7---------------------------10--10b12-----10--7-------------------------------------
G|--------------------7--------|-----7--9--9b11r9p7-----7--9b11--------------------------9b11r9p7-----7h9--7--------7-------
D|-----7--9--7--9--7-----9-----|--9------------------9---------------------------------------------9----------9--9-----9p7--
A|--9-----------------------9--|--------------------------------------------------------------------------------------------
E|-----------------------------|--------------------------------------------------------------------------------------------

Stave 19:

E|----------------------------------------|--
B|--7-------------------------------------|--
G|--7-----------9--7----------------------|--
D|--------------8-----7--9--7h9p7--7h9p7--|--
A|-----7--8--9--9-------------------------|--
E|----------------------------------------|--

Stave 20:

E|------------------------|-----15-------------------------------15-----|--------------------------7------------------------------|--
B|------------------------|-----15-------------------------------15-----|--------------------------7--7--10--7--------------------|--
G|------------------------|------------------------------------------9--|-----------------7--9b11---------------9h11--9--7--------|--
D|---------------7--------|---------------7--9--7h9p7h9p7------------9--|-----------7--9------------------------------------7-----|--
A|---------7--9-----7--7--|------------9--------------------------------|--------9---------------------------------------------9--|--
E|--7--10-----------------|---------------------------------------------|--0------------------------------------------------------|--

Stave 21:

E|-----------------------|--------------------------------|-------------------------------------------------------------
B|-----------------------|--------------------------------|-------------------------------------------------------------
G|-----------------------|--------------------------------|-----------------------------------------------7--9--9p7-----
D|---------------7-------|--------------------------------|---------------7/9--7/9--7/9--7-------------9-------------9--
A|---------7--9-----7/9--|--7h9--7h9--7h9--7h9--7------7--|---------7--9--------------------9p7--9----------------------
E|--7--10----------------|-------------------------10-----|--7--10------------------------------------------------------

Stave 22:

E|---------------|-------------------|---------7--------10-----10--10--10-----10--10--10-----------------------------------|--
B|---------------|-------------------|--7--10-----------10h12--12--10--10-----9---9---7----------------------7-------------|--
G|--9p7----------|--7----7-----------|-------------------------------------------------------9--9h11p9p7--9-----7----------|--
D|-------9p7-----|--7h9--7-----------|-----------------------------------------------------------------------------7h9-----|--
A|------------9--|----------9--7--9--|----------------------------------------------------------------------------------9--|--
E|---------------|-------------------|-------------------------------------------------------------------------------------|--

Stave 23:

E|--
B|--
G|--
D|--
A|--
E|--

							http://www.guitartabcreator.com
Chords

Instruments
{"strings":[[[".",".",10,12,"b",14,"r",10,".",10,".",".",".",".",7,".",".",".",".",".",".",".",".",".",".",".",".",7,".",".",".",".",".",".",".",".",".",".",".",".",".",".",".",".","|",".",".",".",".",".",".",".",".","|"],[12,12,".",".",".",".",".",".",12,".",12,10,7,".",".",10,7,".",".",".",".",".",".",".",".",".",".",".",".",".",".",".",".",".",".",".",".",".",".",".",".",".",".",".","|",7,".",".",".",".",".",".",".","|"],[".",".",".",".",".",".",".",".",".",".",".",".",".",".",".",".",".",9,"b",11,"r",7,".",7,9,"b",11,".",9,"b",11,"r",7,".",7,9,7,".",".",7,".",".",".",".","|",7,"h",9,"b",10,".",7,".","|"],[".",".",".",".",".",".",".",".",".",".",".",".",".",".",".",".",".",".",".",".",".",".",9,".",".",".",".",".",".",".",".",".",".",9,".",".",".",9,9,".",9,7,".",".","|",".",".",".",".",".",".",".",9,"|"],[".",".",".",".",".",".",".",".",".",".",".",".",".",".",".",".",".",".",".",".",".",".",".",".",".",".",".",".",".",".",".",".",".",".",".",".",".",".",".",".",".",".",9,7,"|",".",".",".",".",".",".",".",".","|"],[".",".",".",".",".",".",".",".",".",".",".",".",".",".",".",".",".",".",".",".",".",".",".",".",".",".",".",".",".",".",".",".",".",".",".",".",".",".",".",".",".",".",".",".","|",".",".",".",".",".",".",".",".","|"]],[[".",".",".",".",".",".",".",".",".",".",".",".",".",".",".",".",".",".","|",".",".",".",".",".",".",".",".","_",".",".",".",".",".","_","|",".",".",".",".",".",".",".",".",".",".",".",".",".","|"],[".",".",".",".",".",".",".",".",".",".",".",".",".",".",".",".",".",".","|",".",".",".",".",".",".",".",".","_",".",".",".",".",".","_","|",".",".",".",".",".",".",".",".",".",".",".",".",".","|"],[".",".",".",".",".",".",".",".",".",".",".",".",".",".",".",".",".",".","|",".",".",".",".",".",".",".",".","_",7,".",".",".",".","_","|",".",7,9,9,"b",11,"r",7,9,".",7,"h",9,"|"],[7,"/",9,7,"/",9,7,"/",9,7,"/",9,7,".",".",".",".",".","|",".",".",".",".",7,".",".",".","_",7,"h",9,"p",7,"_","|",9,".",".",".",".",".",".",".",".",9,".",".",".","|"],[".",".",".",".",".",".",".",".",".",".",".",".",".",9,7,".",".",".","|",".",".",7,9,".",7,"/",9,"_",".",".",".",".",".","_","|",".",".",".",".",".",".",".",".",".",".",".",".",".","|"],[".",".",".",".",".",".",".",".",".",".",".",".",".",".",".",10,7,10,"|",7,10,".",".",".",".",".",".","_",".",".",".",".",".","_","|",".",".",".",".",".",".",".",".",".",".",".",".",".","|"]],[[".",".",".",".",".",".",".","|",".",".",".",".",".","_","_","_",".",".",".",".",".",".",".",".",".","|",".",".",".",".",".",".",".",".",".",".",".",".",".",".",".",".",".",".",".","."],[7,".",".",".",".",".",".","|",".",".",".",".",".","_","_","_",7,".",".",7,".",".",".",".",".","|",".",".",".",".",".",".",".",".",".",".",".",".",".",".",".",".",".",".",".","."],[9,"h",11,"p",9,"p",7,"|",7,".",".",".",".","_","_","_",7,"h",9,7,".",".",".",".",".","|",".",".",".",".",".",".",".",".",".",".",".",".",".",".",".",".",".",".",".","."],[".",".",".",".",".",".",".","|",7,"h",9,"p",7,"_","_","_",".",".",".",".",9,9,7,".",".","|",7,".",9,7,".",9,7,".",9,7,".",9,7,"b",8,".",".",".",".","."],[".",".",".",".",".",".",".","|",".",".",".",".",".","_","_","_",".",".",".",".",".",".",".",9,7,"|",7,"/",9,7,"/",9,7,"/",9,7,"/",9,".",".",".",9,7,".",7,9],[".",".",".",".",".",".",".","|",".",".",".",".",".","_","_","_",".",".",".",".",".",".",".",".",".","|",".",".",".",".",".",".",".",".",".",".",".",".",".",".",".",".",".",10,".","."]],[[".",".",".",".",".",".",".",".",".",".","|",".",".",".",".",".",".","_",".",".",".",".","|",".",".",".",".",".",".",".",".",".","_","_",".",".",".",".",".","_","_",".",".",".",".",".",".","_",".",".",".",".","_"],[".",".",".",".",".",".",".",".",".",".","|",".",".",".",".",".",".","_",7,".",".",".","|",".",".",".",7,".",".",".",".",".","_","_",".",".",".",".",".","_","_",".",".",".",".",".",".","_",".",".",".",".","_"],[".",".",".",7,9,9,"b",11,9,7,"|",".",7,".",".",".",".","_",7,".",".",".","|",".",".",".",7,"h",9,"p",7,".","_","_",".",".",".",".",".","_","_",".",".",".",".",".",".","_",".",".",".",".","_"],[".",7,9,".",".",".",".",".",".",".",9,".",7,"h",9,"p",7,"_",".",".",".",9,"|",".",7,9,".",".",".",".",".",9,"_","_",7,".",".",".",".","_","_",".",".",".",".",7,9,"_",7,".",".",".","_"],[9,".",".",".",".",".",".",".",".",".","|",".",".",".",".",".",".","_",".",7,9,".","|",9,".",".",".",".",".",".",".",".","_","_",".",9,7,".",7,"_","_",".",".",7,9,".",".","_",".",9,7,".","_"],[".",".",".",".",".",".",".",".",".",".","|",".",".",".",".",".",".","_",".",".",".",".","|",".",".",".",".",".",".",".",".",".","_","_",".",".",".",10,".","_","_",7,10,".",".",".",".","_",".",".",".",10,"_"]],[[".",".",".",".",".",".",".",".",".",".",".",".",".",".",".",".",".",".",".",".",".",".",".",".",".",".",".",".","_","_",".",".",".",10,".",".",".",".",".",7,".",".",".",".",".",".",".",".",".",".","."],[".",".",".",".",".",".",".",".",".",".",".",".",".",".",".",".",".",".",".",".",".",".",".",12,".",10,"h",12,"_","_",10,"h",12,".",12,"p",10,"p",7,".",10,7,".",".",".",".",".",".",".",".","."],[".",".",".",".",".",".",".",".",".",7,9,7,9,"h",11,"p",9,"p",7,".",9,"b",11,".",11,".",".",".","_","_",".",".",".",".",".",".",".",".",".",".",".",".",9,"h",11,"p",9,"p",7,".",7],[".",".",".",".",7,".",7,"/",9,".",".",".",".",".",".",".",".",".",".",9,".",".",".",".",".",".",".",".","_","_",".",".",".",".",".",".",".",".",".",".",".",".",".",".",".",".",".",".",".",9,"."],[".",".",7,9,".",9,".",".",".",".",".",".",".",".",".",".",".",".",".",".",".",".",".",".",".",".",".",".","_","_",".",".",".",".",".",".",".",".",".",".",".",".",".",".",".",".",".",".",".",".","."],[7,10,".",".",".",".",".",".",".",".",".",".",".",".",".",".",".",".",".",".",".",".",".",".",".",".",".",".","_","_",".",".",".",".",".",".",".",".",".",".",".",".",".",".",".",".",".",".",".",".","."]],[[".",".",".",7,".",".",".",".",".",".",".",".",".",".",".",".",".",".",".",".",".",".",".",".","|",".",".",".",".","_",".",".",".",".",".",".",".",".",".",".",".",".",".",".","."],[".",".",".",".",".",".",".",".",".",".",".",".",".",".",".",".",".",".",".",".",".",".",".",".","|",".",10,"/",12,"_",10,".",".",".",".",".",".",".",".",7,".",".",".",".","."],[9,"b",11,".",9,"b",11,"r",9,"r",7,".",7,9,7,".",".",7,".",".",".",".",".",".","|",".",".",".",".","_",".",9,"b",11,"r",9,"r",7,".",7,"h",9,7,".",7],[".",".",".",".",".",".",".",".",".",".",".",9,".",".",".",9,9,".",9,"p",7,".",".",".","|",9,".",".",".","_",".",".",".",".",".",".",".",".",9,".",".",".",".",9,"."],[".",".",".",".",".",".",".",".",".",".",".",".",".",".",".",".",".",".",".",".",".",9,"p",7,"|",".",".",".",".","_",".",".",".",".",".",".",".",".",".",".",".",".",".",".","."],[".",".",".",".",".",".",".",".",".",".",".",".",".",".",".",".",".",".",".",".",".",".",".",".","|",".",".",".",".","_",".",".",".",".",".",".",".",".",".",".",".",".",".",".","."]],[[".",".",".",".",".",".",".",".",".",".",".",".",".",".",".",".",".",".","|",".",".",".",".",".",".",".",".",".",".",".",".",".",".",".",".",".",7,".",".",".",".",7,".",".",".",".",".",".",".",".","."],[10,"/",12,10,".",".",".",".",".",".",".",".",7,".",".",".",".",".","|",".",7,".",9,".",".",".",".",".",".",".",".",".",".",".",".",".",".",7,10,"b",12,".",10,7,".",".",".",".",".",".","."],[".",".",".",".",9,"b",11,"r",9,"r",7,".",7,"h",9,7,".",".","|",".",7,"h",9,9,"b",11,"r",9,"r",7,".",9,7,9,"b",11,".",".",".",".",".",".",".",".",9,"b",11,"r",9,"r",7],[".",".",".",".",".",".",".",".",".",".",".",9,".",".",".",".",9,9,"|",9,".",".",".",".",".",".",".",".",".",".",9,".",".",".",".",".",".",".",".",".",".",".",".",".",".",".",".",".",".",".","."],[".",".",".",".",".",".",".",".",".",".",".",".",".",".",".",".",".",".","|",".",".",".",".",".",".",".",".",".",".",".",".",".",".",".",".",".",".",".",".",".",".",".",".",".",".",".",".",".",".",".","."],[".",".",".",".",".",".",".",".",".",".",".",".",".",".",".",".",".",".","|",".",".",".",".",".",".",".",".",".",".",".",".",".",".",".",".",".",".",".",".",".",".",".",".",".",".",".",".",".",".",".","."]],[[".",".",".",".",".",".",".",".",".",".",".",".","|",".",".",".",".",".",".",".",".",".",".",".",".",".",".",".",".",".",".",".",".",".",".",".",".",".",".",".",".",".",".",".",".",".",".",".",".",".","."],[".",".",".",".",".",".",".",".",".",".",".",".","|",9,".",9,7,".",".",".",".",".",".",".",".",".",".",".",".",".",".",".",".",".",".",".",".",".",".",".",".",".",".",".",".",".",".",".",".",".","."],[".",7,"h",9,7,".",".",".",".",".",".",".","|",9,"h",11,7,".",".",".",".",".",".",".",".",".",".",".",".",".",".",".",".",".",".",".",".",".",".",".",".",".",".",".",".",".",".",".",".",".","."],[9,".",".",".",".",9,9,7,".",".",".",".","|",".",".",".",".",9,7,".",".",".",".",".",".",".",".",".",".",".",".",".",".",".",".",".",".",".",".",".",".",".",".",".",".",".",".",".",7,"/",9],[".",".",".",".",".",".",".",".",9,7,".",7,"|",".",".",".",".",".",".",9,7,".",7,".",7,9,"/",12,"\\",9,7,".",".",".",7,9,"/",12,"\\",9,7,".",".",".",7,9,"/",12,".",".","."],[".",".",".",".",".",".",".",".",".",".",10,".","|",".",".",".",".",".",".",".",".",10,".",10,".",".",".",".",".",".",".",10,7,10,".",".",".",".",".",".",".",10,7,10,".",".",".",".",".",".","."]],[[".",".",".",".",".",".",".",".",".",".",".",".",".",".","|",".",".",".",".",".",".",".",".",10,12,12,"b",14,"r",12,"r",10,".",10,".",".",".",".",".",".",".",".",".",".",".",".",".",".",".","."],[".",".",".",".",".",".",".",".",".",".",".",".",".",".","|",12,"p",10,".",10,10,"/",12,".",".",".",".",".",".",".",".",".",12,".",12,10,"\\",7,".",".",".",".",".",".",".",".",".",".",".","."],[".",".",".",".",".",".",".",".",".",".",".",".",".",".","|",".",".",".",11,".",".",".",".",".",".",".",".",".",".",".",".",".",".",".",".",".",".",".",9,"\\",7,".",7,9,"b",11,"r",9,"r",7],[7,"/",9,7,"/",9,7,"/",9,"p",7,".",7,9,"|",".",".",".",".",".",".",".",".",".",".",".",".",".",".",".",".",".",".",".",".",".",".",".",".",".",".",9,".",".",".",".",".",".",".","."],[".",".",".",".",".",".",".",".",".",".",".",9,".",".","|",".",".",".",".",".",".",".",".",".",".",".",".",".",".",".",".",".",".",".",".",".",".",".",".",".",".",".",".",".",".",".",".",".",".","."],[".",".",".",".",".",".",".",".",".",".",".",".",".",".","|",".",".",".",".",".",".",".",".",".",".",".",".",".",".",".",".",".",".",".",".",".",".",".",".",".",".",".",".",".",".",".",".",".",".","."]],[[".",".",".",7,".",".",".",".",".",".",".",".",".",".",".",".",".",".",".",".",".",".",".","|",".",".",".",".",".",".",".",".",".",".",".",".",".",".",".",".",7,".",".",".",".",".",".",".","."],[".",".",".",".",".",".",".",".",".",".",".",".",".",".",".",".",".",".",".",".",".",".",".","|",".",7,7,".",".",".",".",".",".",".",".",".",".",".",".",".",".",".",".",".",".",".",".",".","."],[9,"b",11,".",9,"b",11,"r",9,7,".",7,"h",9,7,".",".",7,".",".",".",".",".","|",".",7,9,9,"h",11,"r",9,"r",7,9,".",7,9,"b",11,".",9,"b",11,"r",9,"r",7,"."],[".",".",".",".",".",".",".",".",".",".",9,".",".",".",".",9,9,".",9,7,".",".",".","|",9,".",".",".",".",".",".",".",".",".",".",9,".",".",".",".",".",".",".",".",".",".",".",".",9],[".",".",".",".",".",".",".",".",".",".",".",".",".",".",".",".",".",".",".",".",9,7,".","|",".",".",".",".",".",".",".",".",".",".",".",".",".",".",".",".",".",".",".",".",".",".",".",".","."],[".",".",".",".",".",".",".",".",".",".",".",".",".",".",".",".",".",".",".",".",".",".",10,"|",".",".",".",".",".",".",".",".",".",".",".",".",".",".",".",".",".",".",".",".",".",".",".",".","."]],[[".",".",".",".",".",".",".",".",".",".",".",".",".","|",".",".",".",".",".",".",".",".",".",".",".",".",".",".",".",".",".",7,".",".",".",".",".",".",".",".",".",".",".",".",".",".",".",".",".","."],[".",".",".",".",".",".",".",".",".",".",".",".",".","|",".",7,7,".",".",".",".",".",".",".",".",".",".",".",".",".",".",".",".",".",".",".",".",".",".",".",".",".",".",".",".",".",".",".",".","."],[7,"h",9,7,".",".",".",".",".",7,".",".",".","|",".",7,9,9,"h",11,"r",9,"r",7,9,".",7,9,9,"b",11,".",9,"b",11,"r",9,"r",7,".",7,"h",9,7,".",".",7,".",".","."],[".",".",".",".",9,9,7,"h",9,".",9,"p",7,"|",9,".",".",".",".",".",".",".",".",".",".",9,".",".",".",".",".",".",".",".",".",".",".",".",".",9,".",".",".",".",9,9,".",9,"p",7],[".",".",".",".",".",".",".",".",".",".",".",".",".","|",".",".",".",".",".",".",".",".",".",".",".",".",".",".",".",".",".",".",".",".",".",".",".",".",".",".",".",".",".",".",".",".",".",".",".","."],[".",".",".",".",".",".",".",".",".",".",".",".",".","|",".",".",".",".",".",".",".",".",".",".",".",".",".",".",".",".",".",".",".",".",".",".",".",".",".",".",".",".",".",".",".",".",".",".",".","."]],[[".",".",".",".","|",".",".",".",".",".",".",".",".",".",".",".",".",".",".",".",".",7,".",".",".",".",7,".",".",".",".",".",".",".",".",".",".",".",".",".",".",".",".",".","."],[".",".",".",".","|",".",7,7,".",".",".",".",".",".",".",".",".",".",".",".",".",".",7,10,"b",12,".",10,"p",7,".",".",".",".",".",".",".",".",".",".",".",".",".",".","."],[".",".",".",".","|",".",7,9,9,"b",11,"r",9,"r",7,9,".",7,9,"b",11,".",".",".",".",".",".",".",".",".",9,"b",11,"r",9,"r",7,".",7,"h",9,7,".",".",7],[".",".",".",".","|",9,".",".",".",".",".",".",".",".",".",".",9,".",".",".",".",".",".",".",".",".",".",".",".",".",".",".",".",".",".",".",".",9,".",".",".",".",9,9,"."],[9,"p",7,".","|",".",".",".",".",".",".",".",".",".",".",".",".",".",".",".",".",".",".",".",".",".",".",".",".",".",".",".",".",".",".",".",".",".",".",".",".",".",".",".","."],[".",".",".",10,"|",".",".",".",".",".",".",".",".",".",".",".",".",".",".",".",".",".",".",".",".",".",".",".",".",".",".",".",".",".",".",".",".",".",".",".",".",".",".",".","."]],[[".",".",".",".",".",".","_",".",".",".",".",".","_",".",".",".",".",".","_",".",".",".",".",".",".",".","_",".",".",".",".","."],[".",7,9,".",".",".","_",7,9,".",".",".","_",7,9,".",".",".","_",9,".",11,9,".",".",".","_",7,9,".",".","."],[".",7,9,7,".",".","_",7,9,7,".",".","_",7,9,7,".",".","_",9,"/",11,9,7,".",".","_",7,9,7,".","."],[9,".",".",".",9,7,"_",".",".",".",9,7,"_",".",".",".",9,7,"_",".",".",".",".",".",9,7,"_",".",".",".",9,7],[".",".",".",".",".",".","_",".",".",".",".",".","_",".",".",".",".",".","_",".",".",".",".",".",".",".","_",".",".",".",".","."],[".",".",".",".",".",".","_",".",".",".",".",".","_",".",".",".",".",".","_",".",".",".",".",".",".",".","_",".",".",".",".","."]],[[".",".",".",".",".",7,".",".",".",".",".",7,".",10,"b",12,"r",10,7,".",".",".",".",".",".",".",".",".",".",".",".",".",".",".",".",7,10,"b",12,"|"],[".",".",".",".",".",".",10,7,".",".",".",".",7,".",".",".",".",".",".",10,7,".",".",".",".",".",".",".",".",".",".",".",".",".",7,".",".",".",".","|"],[".",7,9,"b",11,".",".",".",9,"b",11,".",".",".",".",".",".",".",".",".",".",9,"b",11,"r",9,"r",7,".",7,"h",9,"b",11,".",".",".",".",".","|"],[9,".",".",".",".",".",".",".",".",".",".",".",".",".",".",".",".",".",".",".",".",".",".",".",".",".",".",".",9,".",".",".",".",".",".",".",".",".",".","|"],[".",".",".",".",".",".",".",".",".",".",".",".",".",".",".",".",".",".",".",".",".",".",".",".",".",".",".",".",".",".",".",".",".",".",".",".",".",".",".","|"],[".",".",".",".",".",".",".",".",".",".",".",".",".",".",".",".",".",".",".",".",".",".",".",".",".",".",".",".",".",".",".",".",".",".",".",".",".",".",".","|"]],[[".",".",".",7,".",".",".",".",".",".",".",".",".","_","_",".",".",".",7,".",".",".",".",".",7,".",".",".",".",7,".",".",".",".",".",".",".",".",".",".",".",".",".",".",".",".",".",".",".","|"],[10,"b",12,".",10,7,".",".",".",".",".",".",".","_","_",10,"b",12,".",10,7,".",".",".",".",7,10,"b",12,".",10,7,".",".",".",".",".",".",".",".",".",".",".",".",".",".",".",".",".","|"],[".",".",".",".",".",".",9,"b",11,"r",9,"r",7,"_","_",".",".",".",".",".",".",9,"b",11,".",".",".",".",".",".",".",".",9,"b",11,"r",9,"r",7,".",7,"h",9,7,".",".",".",".",".","|"],[".",".",".",".",".",".",".",".",".",".",".",".",".","_","_",".",".",".",".",".",".",".",".",".",".",".",".",".",".",".",".",".",".",".",".",".",".",".",".",9,".",".",".",".",9,9,7,".",".","|"],[".",".",".",".",".",".",".",".",".",".",".",".",".","_","_",".",".",".",".",".",".",".",".",".",".",".",".",".",".",".",".",".",".",".",".",".",".",".",".",".",".",".",".",".",".",".",".",9,7,"|"],[".",".",".",".",".",".",".",".",".",".",".",".",".","_","_",".",".",".",".",".",".",".",".",".",".",".",".",".",".",".",".",".",".",".",".",".",".",".",".",".",".",".",".",".",".",".",".",".",".","|"]],[[".",".",".",".",".","_","_",".",".",".",".",".",".",".",".",".",".",".",".",".",".",".",".",".",".",".",7,".",".",".",".",".",".",".",".",".",".",".",".",".",".",".",".",".",".","|"],[7,".",".",".",".","_","_",7,".",".",".",".",".",".",".",".",".",".",".",".",".",".",".",".",".",".",".",".",".",".",".",".",".",".",".",".",".",".",".",".",".",".",".",".",".","|"],[7,"h",9,"p",7,"_","_",7,"h",9,"p",7,9,".",7,9,"b",11,"r",9,7,".",7,9,"b",11,".",9,"b",11,"r",9,7,".",7,"h",9,7,".",".",".",".",".",".",".","|"],[".",".",".",".",".","_","_",".",".",".",".",".",".",9,".",".",".",".",".",".",".",9,".",".",".",".",".",".",".",".",".",".",".",9,".",".",".",".",9,9,7,".",".",".",".","|"],[".",".",".",".",".","_","_",".",".",".",".",".",".",".",".",".",".",".",".",".",".",".",".",".",".",".",".",".",".",".",".",".",".",".",".",".",".",".",".",".",".",9,7,".",7,"|"],[".",".",".",".",".","_","_",".",".",".",".",".",".",".",".",".",".",".",".",".",".",".",".",".",".",".",".",".",".",".",".",".",".",".",".",".",".",".",".",".",".",".",".",10,".","|"]],[[".",".",".",".","_",".",".",".","|",".",".",".",".",".",".",".",".",".",".",".",".","|",".",".",".",".",".",".",".",".",".",".",".",".",".",".",".",".",".",".",".",".",".",".","|"],[".",".",".",12,"_",7,7,".","|",".",".",".",".",".",".",".",".",".",".",".",".","|",".",".",".",".",".",".",".",".",".",".",".",".",".",".",".",".",".",".",".",".",".",".","|"],[9,"/",11,11,"_",9,7,".","|",".",".",".",".",".",".",".",".",".",".",".",".","|",".",7,7,".",".",".",".",".",".",".",".",".",".",".",".",".",".",".",".",".",".",".","|"],[".",".",".",".","_",".",".",".","|",".",".",".",7,"h",9,"b",10,7,".",".",".","|",".",7,9,9,"h",11,"r",9,"p",7,".",7,9,"b",11,"r",9,"p",7,".",".",".","|"],[".",".",".",".","_",".",".",9,"|",7,"h",9,".",".",".",".",".",".",9,"p",7,"|",9,".",".",".",".",".",".",".",".",".",9,".",".",".",".",".",".",".",".",9,7,".","|"],[".",".",".",".","_",".",".",".","|",".",".",".",".",".",".",".",".",".",".",".",".","|",".",".",".",".",".",".",".",".",".",".",".",".",".",".",".",".",".",".",".",".",".",10,"|"]],[[".",".",".",".",".",".",".",".",".","|",".",".",".",".",".",".",".",".",".",".",".",".",".",".",".",7,".",".",".",".",7,".",".",".",".",".",".",".",".",".",".",".",".",".",".",".",".",".",".",".","."],[".",".",".",".",".",".",7,".",".","|",".",7,7,".",".",".",".",".",".",".",".",".",".",".",".",".",10,10,"b",12,".",10,7,".",".",".",".",".",".",".",".",".",".",".",".",".",".",".",".",".","."],[".",".",".",".",".",".",7,".",".","|",".",7,9,9,"b",11,"r",9,"p",7,".",7,9,"b",11,".",".",".",".",".",".",".",".",9,"b",11,"r",9,"p",7,".",7,"h",9,7,".",".",7,".",".","."],[".",7,9,7,9,7,".",9,".","|",9,".",".",".",".",".",".",".",".",".",9,".",".",".",".",".",".",".",".",".",".",".",".",".",".",".",".",".",".",".",9,".",".",".",".",9,9,".",9,"p",7],[9,".",".",".",".",".",".",".",9,"|",".",".",".",".",".",".",".",".",".",".",".",".",".",".",".",".",".",".",".",".",".",".",".",".",".",".",".",".",".",".",".",".",".",".",".",".",".",".",".",".","."],[".",".",".",".",".",".",".",".",".","|",".",".",".",".",".",".",".",".",".",".",".",".",".",".",".",".",".",".",".",".",".",".",".",".",".",".",".",".",".",".",".",".",".",".",".",".",".",".",".",".","."]],[[".",".",".",".",".",".",".",".",".",".",".",".",".",".",".",".",".",".","|"],[7,".",".",".",".",".",".",".",".",".",".",".",".",".",".",".",".",".","|"],[7,".",".",".",9,7,".",".",".",".",".",".",".",".",".",".",".",".","|"],[".",".",".",".",8,".",7,9,7,"h",9,"p",7,7,"h",9,"p",7,"|"],[".",7,8,9,9,".",".",".",".",".",".",".",".",".",".",".",".",".","|"],[".",".",".",".",".",".",".",".",".",".",".",".",".",".",".",".",".",".","|"]],[[".",".",".",".",".",".",".","|","_",15,"_",".",".",".",".",".",".",".",".",".",".",".",".","_","_",15,".","|",".","_",".",".",".",".",".",".",".",7,".",".",".",".",".",".",".",".",".",".","|"],[".",".",".",".",".",".",".","|","_",15,"_",".",".",".",".",".",".",".",".",".",".",".",".","_","_",15,".","|",".","_",".",".",".",".",".",".",".",7,7,10,7,".",".",".",".",".",".",".","|"],[".",".",".",".",".",".",".","|","_",".","_",".",".",".",".",".",".",".",".",".",".",".",".","_","_",".",9,"|",".","_",".",".",".",7,9,"b",11,".",".",".",".",9,"h",11,9,7,".",".","|"],[".",".",".",".",7,".",".","|","_",".","_",".",7,9,7,"h",9,"p",7,"h",9,"p",7,"_","_",".",9,"|",".","_",".",7,9,".",".",".",".",".",".",".",".",".",".",".",".",".",7,".","|"],[".",".",7,9,".",7,7,"|","_",".","_",9,".",".",".",".",".",".",".",".",".",".",".","_","_",".",".","|",".","_",9,".",".",".",".",".",".",".",".",".",".",".",".",".",".",".",".",9,"|"],[7,10,".",".",".",".",".","|","_",".","_",".",".",".",".",".",".",".",".",".",".",".",".","_","_",".",".","|",0,"_",".",".",".",".",".",".",".",".",".",".",".",".",".",".",".",".",".",".","|"]],[[".",".",".",".",".",".",".",".","|",".",".",".",".",".",".",".",".",".",".",".",".",".",".",".","|",".",".",".",".",".",".",".",".",".",".",".",".",".",".",".",".",".",".","_",".",".",".",".",".",".","."],[".",".",".",".",".",".",".",".","|",".",".",".",".",".",".",".",".",".",".",".",".",".",".",".","|",".",".",".",".",".",".",".",".",".",".",".",".",".",".",".",".",".",".","_",".",".",".",".",".",".","."],[".",".",".",".",".",".",".",".","|",".",".",".",".",".",".",".",".",".",".",".",".",".",".",".","|",".",".",".",".",".",".",".",".",".",".",".",".",".",".",".",".",".",".","_",".",7,9,9,"p",7,"."],[".",".",".",".",7,".",".",".","|",".",".",".",".",".",".",".",".",".",".",".",".",".",".",".","|",".",".",".",".",7,"/",9,7,"/",9,7,"/",9,7,".",".",".",".","_",9,".",".",".",".",".",9],[".",".",7,9,".",7,"/",9,"|",7,"h",9,7,"h",9,7,"h",9,7,"h",9,7,".",7,"|",".",".",7,9,".",".",".",".",".",".",".",".",".",".",9,"p",7,9,"_",".",".",".",".",".",".","."],[7,10,".",".",".",".",".",".","|",".",".",".",".",".",".",".",".",".",".",".",".",".",10,".","|",7,10,".",".",".",".",".",".",".",".",".",".",".",".",".",".",".",".","_",".",".",".",".",".",".","."]],[[".",".",".",".",".",".",".","|",".",".",".",".",".",".",".","|",".",".",7,"_","_",10,".",".",10,10,10,"_",10,10,10,".",".",".",".",".",".",".",".",".",".",".",".",".",".",".",".","|"],[".",".",".",".",".",".",".","|",".",".",".",".",".",".",".","|",7,10,".","_","_",10,"h",12,12,10,10,"_",9,9,7,".",".",".",".",".",".",".",".",".",".",7,".",".",".",".",".","|"],[9,"p",7,".",".",".",".","|",7,".",".",7,".",".",".","|",".",".",".","_","_",".",".",".",".",".",".","_",".",".",".",".",9,9,"h",11,"p",9,"p",7,9,".",7,".",".",".",".","|"],[".",".",".",9,"p",7,".","|",7,"h",9,7,".",".",".","|",".",".",".","_","_",".",".",".",".",".",".","_",".",".",".",".",".",".",".",".",".",".",".",".",".",".",".",7,"h",9,".","|"],[".",".",".",".",".",".",9,"|",".",".",".",".",9,7,9,"|",".",".",".","_","_",".",".",".",".",".",".","_",".",".",".",".",".",".",".",".",".",".",".",".",".",".",".",".",".",".",9,"|"],[".",".",".",".",".",".",".","|",".",".",".",".",".",".",".","|",".",".",".","_","_",".",".",".",".",".",".","_",".",".",".",".",".",".",".",".",".",".",".",".",".",".",".",".",".",".",".","|"]],[[],[],[],[],[],[]]],"numberofstrings":6,"notes":["E","B","G","D","A","E","B"],"capo":0,"stringnotes":["E4","B3","G3","D3","A2","E2"],"comments":["Stave 1:","Stave 2:","Stave 3:","Stave 4:","Stave 5:","Stave 6:","Stave 7:","Stave 8:","Stave 9:","Stave 10:","Stave 11:","Stave 12:","Stave 13:","Stave 14:","Stave 15:","Stave 16:","Stave 17:","Stave 18:","Stave 19:","Stave 20:","Stave 21:","Stave 22:","Stave 23:"],"timing":[[null,null,null,null,"W",null,null,null,null,null,"W","W","W","W","W","W","W",null,"W",null,"W","W","W","W",null,"W","W","W",null,"W",null,"W","W","W","W","W","W","W","W","W","W","W","W","W","W","W","W","W","W","W","W","W"],["W",null,"W","W",null,"W","W",null,"W","W",null,"W","W","W","W","W","W","W",null,"W","W","W","W","W","W","W","W","W","W",null,"W",null,"W",null,null,"W","W","W","W",null,"W",null,"W","W","W","W","W","W","W","W","W"],["W",null,"W",null,"W",null,"W",null,"W",null,"W",null,"W",null,null,null,"W",null,"W","W","W","W","W","W","W","W","W",null,"W","W",null,"W","W",null,"W","W",null,"W","W",null,"W","W","W","W","W","W"],["W","W","W","W","W","W",null,"W","W","W",null,"W",null,"W",null,"W",null,"W","W","W","W",null,"W","W","W","W",null,"W",null,"W","W",null,null,"W","W","W","W","W",null,null,"W","W","W","W","W","W",null,"W","W","W","W",null,"W"],["W","W","W","W","W","W","W",null,"W","W","W","W","W",null,"W","W","W",null,"W","W","W",null,"W","W","W","W",null,"W",null,null,"W",null,"W","W","W","W","W",null,"W","W","W","W","W",null,"W",null,"W",null,"W","W","W"],["W",null,"W","W","W",null,"W",null,"W",null,"W","W","W","W","W","W","W","W","W","W","W","W",null,"W",null,"W","W",null,"W",null,"W","W",null,"W",null,"W",null,"W","W","W",null,"W","W","W","W"],["W",null,"W","W","W",null,"W",null,"W",null,"W","W","W",null,"W","W","W","W",null,"W","W",null,"W","W",null,"W",null,"W",null,"W","W","W","W","W",null,"W","W","W","W",null,"W","W","W","W","W",null,"W",null,"W",null,"W"],["W","W",null,"W","W","W","W","W","W","W","W","W",null,"W",null,"W","W","W","W","W","W","W","W","W","W",null,"W",null,"W","W","W","W","W","W","W",null,"W",null,"W","W","W","W","W",null,"W","W",null,"W","W",null,"W"],["W",null,"W","W",null,"W","W",null,"W",null,"W","W","W","W",null,"W",null,"W","W","W","W",null,"W","W","W","W",null,"W",null,"W",null,"W","W","W","W","W",null,"W","W",null,"W","W","W","W",null,"W",null,"W",null,"W","W"],["W",null,"W","W","W",null,"W","W","W","W","W","W",null,"W","W","W","W","W","W","W","W","W","W","W","W","W","W","W",null,"W",null,"W",null,"W","W","W","W","W",null,"W","W","W",null,"W",null,"W",null,"W","W","W"],["W",null,"W","W","W","W","W",null,"W","W","W",null,"W",null,"W","W","W","W",null,"W",null,"W",null,"W","W","W","W","W","W",null,"W","W","W",null,"W",null,"W","W","W","W","W",null,"W","W","W","W","W","W",null,"W","W"],["W",null,"W","W",null,"W","W","W","W",null,"W",null,"W",null,"W","W","W","W","W",null,"W","W","W","W",null,"W","W","W","W","W","W",null,"W",null,"W",null,"W","W","W",null,"W","W","W","W","W"],["W","W","W","W","W","W",null,"W","W","W","W","W","W",null,"W","W","W","W","W","W","W","W","W",null,"W","W","W","W","W","W","W","W","W","W","W","W"],["W","W","W",null,"W","W","W","W","W","W","W","W","W","W","W","W","W","W","W","W","W","W",null,"W",null,"W",null,"W","W","W",null,"W",null,"W","W","W","W",null,"W"],["W",null,"W","W","W","W","W",null,"W",null,"W",null,"W",null,null,"W",null,"W","W","W","W","W",null,"W","W","W","W",null,"W","W","W","W","W",null,"W",null,"W",null,"W","W","W",null,"W","W","W","W","W","W","W"],["W",null,"W",null,"W",null,null,"W",null,"W",null,"W","W","W","W","W",null,"W",null,"W","W","W","W","W",null,"W","W","W",null,"W",null,"W","W","W","W",null,"W","W","W","W","W","W","W","W","W"],["W",null,"W","W",null,"W","W","W",null,"W",null,"W","W",null,"W",null,"W","W","W",null,"W",null,"W","W","W","W","W","W","W","W","W","W","W","W","W",null,"W",null,"W",null,"W","W","W","W"],["W","W","W","W","W","W","W","W","W",null,"W","W","W","W",null,"W",null,"W",null,"W","W","W","W",null,"W","W","W","W",null,"W","W","W","W","W",null,"W",null,"W",null,"W","W","W","W","W","W","W","W","W","W",null,"W"],["W","W","W","W","W","W","W","W","W",null,"W",null,"W","W",null,"W",null,"W"],["W","W","W","W","W","W","W","W",null,"W",null,"W","W","W","W",null,"W",null,"W",null,"W",null,"W",null,null,"W","W",null,"W",null,"W","W","W","W","W",null,"W","W","W","W","W","W",null,"W","W","W","W","W"],["W","W","W","W","W","W",null,"W",null,"W",null,"W","W",null,"W","W",null,"W","W",null,"W","W","W","W",null,"W","W","W","W","W",null,"W","W",null,"W","W",null,"W","W","W",null,"W","W",null,"W","W","W","W",null,"W","W"],["W",null,"W","W",null,"W","W",null,"W",null,"W","W","W","W","W",null,"W","W","W",null,null,"W",null,"W","W","W","W",null,"W","W","W","W",null,"W",null,"W","W","W",null,"W","W","W","W","W",null,"W","W"],[]],"timingvisible":false,"tabcounter":0,"stave":22,"totalstaves":23,"instrument":"6guitar","selectedtuning":"6_standard","version":"13"}

Member for

1 month 3 weeks
Submitted by MattB on Thu, 2020-11-26 10:26