Sound will begin in 5 seconds

Unknown by The Duddermen Bass Tab

01234567891011121314151617181920212223
E
B
G
D
A
E
B
0 1 2 3 4 5 6 7 8 9 10 11 12 13 14 15 16 17 18 19 20 21 22 23
(/) Slide Up  (\) Slide Down  (h) Hammer On  (p) Pull Off  (b) Bend (r) Release (v) Vibrato

Stave 1: INTRO

G|--------------------------------------
D|--------------------------------------
A|-0----3--------------0----3---------5-
E|-----------3----2--------------3------

Stave 2: Verse 1 (play this twice)

G|------------------------------------------------------------------------------------------
D|------------------------------------------------------------------------------------------
A|-0----3------------------0----3---------5----5h7-0----3------------------0----3-----------
E|-----------3----2----2-3-----------3-----------------------3----2----2-3-----------3----2-

Stave 3: (after first verse "i just wan't to break free from this place...")

G|------------------------
D|------------------------
A|-0----3---------5-5-5h7-
E|-----------3------------

Stave 4: Verse 2 (almost the same as Verse 1)

G|--------------------------------------------------------------------------------------
D|--------------------------------------------------------------------------------------
A|-0----3------------------0----3---------5----0----3------------------0----3---------5-
E|-----------3----2----2-3-----------3-------------------3----2----2-3-----------3------

Stave 5: CHORUS

G|--------------------------5----5-7-------------------------------------
D|-----------5----4------------------5----4----4-5-7--------------5------
A|-0----3--------------0--------------------------------0----3---------5-
E|-----------------------------------------------------------------------

Stave 6: Play this after Chorus, Then go back to the normal Verse

G|-----------------------------------------------------------------
D|-----------------------------------------------------------------
A|-0----3------------------0----3----3-5------5/7----5----3-2----0-
E|-----------3----2----2-3---------------3-------------------------

Stave 7: Outro Sequence (After 2nd Chorus)

G|--------2---2-----------4---4--------5---5--------7---7-
D|--------------------------------------------------------
A|-0----0---0------2----2---2---3----3---3---5----5---5---
E|--------------------------------------------------------

http://www.guitartabcreator.com
Guitar Tab Creator is intended to store guitar tab created through the tool. It currently does not support in-line text editing. Any text you place in here will be lost. If you need to comment on your tab, please use the "Tab Notes" section located below.