River- Eminem (ft. Ed Sheeran)

Chords

01234567891011121314151617181920212223
E
B
G
D
A
E
B
0 1 2 3 4 5 6 7 8 9 10 11 12 13 14 15 16 17 18 19 20 21 22 23
(/) Slide Up  (\) Slide Down  (h) Hammer On  (p) Pull Off  (b) Bend (r) Release (v) Vibrato

Stave 1:

E|-----------------------------------------------------------------------------------------------------------------------------------0--0--0--0--0--------
B|--------0--2--4--2--0--------0--2--4--2-----4-----5--4--2--2-----2--4-----0--2--4--2--0-----4--4--4--2--4--4--4--4--4--2--2--0--0-----------------4--4--
G|-----1-----------------1--1--------------4-----4--------------4--------1-----------------1--------------------------------------------------------------
D|--4-----------------------------------------------------------------------------------------------------------------------------------------------------
A|--------------------------------------------------------------------------------------------------------------------------------------------------------
E|--------------------------------------------------------------------------------------------------------------------------------------------------------

Stave 2:

E|--------------------------------------------------------
B|--4--2-----2--------------------------------------------
G|--------4-----1--1--1--3--4--3--1--1--------------1--1--
D|--------------------------------------1--1--1--4--------
A|--------------------------------------------------------
E|--------------------------------------------------------

							http://www.guitartabcreator.com
Instruments
{"strings":[[[".",".",".",".",".",".",".",".",".",".",".",".",".",".",".",".",".",".",".",".",".",".",".",".",".",".",".",".",".",".",".",".",".",".",".",".",".",".",".",".",".",".",".",0,0,0,0,0,".","."],[".",".",0,2,4,2,0,".",".",0,2,4,2,".",4,".",5,4,2,2,".",2,4,".",0,2,4,2,0,".",4,4,4,2,4,4,4,4,4,2,2,0,0,".",".",".",".",".",4,4],[".",1,".",".",".",".",".",1,1,".",".",".",".",4,".",4,".",".",".",".",4,".",".",1,".",".",".",".",".",1,".",".",".",".",".",".",".",".",".",".",".",".",".",".",".",".",".",".",".","."],[4,".",".",".",".",".",".",".",".",".",".",".",".",".",".",".",".",".",".",".",".",".",".",".",".",".",".",".",".",".",".",".",".",".",".",".",".",".",".",".",".",".",".",".",".",".",".",".",".","."],[".",".",".",".",".",".",".",".",".",".",".",".",".",".",".",".",".",".",".",".",".",".",".",".",".",".",".",".",".",".",".",".",".",".",".",".",".",".",".",".",".",".",".",".",".",".",".",".",".","."],[".",".",".",".",".",".",".",".",".",".",".",".",".",".",".",".",".",".",".",".",".",".",".",".",".",".",".",".",".",".",".",".",".",".",".",".",".",".",".",".",".",".",".",".",".",".",".",".",".","."]],[[".",".",".",".",".",".",".",".",".",".",".",".",".",".",".",".",".","."],[4,2,".",2,".",".",".",".",".",".",".",".",".",".",".",".",".","."],[".",".",4,".",1,1,1,3,4,3,1,1,".",".",".",".",1,1],[".",".",".",".",".",".",".",".",".",".",".",".",1,1,1,4,".","."],[".",".",".",".",".",".",".",".",".",".",".",".",".",".",".",".",".","."],[".",".",".",".",".",".",".",".",".",".",".",".",".",".",".",".",".","."]]],"numberofstrings":6,"notes":["E","B","G","D","A","E","B"],"capo":0,"stringnotes":["E4","B3","G3","D3","A2","E2"],"comments":["Stave 1:","Stave 2:"],"timing":[["W","W","W","W","W","W","W","W","W","W","W","W","W","W","W","W","W","W","W","W","W","W","W","W","W","W","W","W","W","W","W","W","W","W","W","W","W","W","W","W","W","W","W","W","W","W","W","W","W","W","W"],["W","W","W","W","W","W","W","W","W","W","W","W","W","W","W","W","W","W"]],"timingvisible":false,"tabcounter":18,"stave":1,"totalstaves":2,"instrument":"6guitar","selectedtuning":"6_standard","version":"13"}

Member for

1 week 3 days
Submitted by Matt Baker on Sat, 2020-11-21 22:12