Wake me up when september ends

Chords

01234567891011121314151617181920212223
E
B
G
D
A
E
B
0 1 2 3 4 5 6 7 8 9 10 11 12 13 14 15 16 17 18 19 20 21 22 23
(/) Slide Up  (\) Slide Down  (h) Hammer On  (p) Pull Off  (b) Bend (r) Release (v) Vibrato

Intro

E|-----------------------------------------------------------------------
B|-----------3--------3--------3--------3-----------3-----------3--------
G|--------0--------0--------0--------0-----------0-----------0-----------
D|-----5--------5--------5--------5-----------5-----------5--------------
A|-----------------------------------------------------------------------
E|-----------------------------------------------------------------------

Estrofa

E|-----------------------------------------------------------------------
B|-----------3--------3-----------3-----------3-----------3-----------3--
G|--------0--------0-----------0-----------0-----------0-----------0-----
D|-----5--------5-----------4-----------4-----------2-----------2--------
A|-----------------------------------------------------------------------
E|-----------------------------------------------------------------------



E|--------------------------------------------------------
B|-----------3-----------3-----------5--------5-----------
G|--------0-----------0-----------5--------5-----5--------
D|-----0-----------0-----------5--------5-----------------
A|--------------------------------------------------------
E|--------------------------------------------------------



E|-----------------------------------------------------------------------------
B|-----------4--------4--------------3--------3--------------3--------3--------
G|--------5--------5-----5--------0--------0-----0--------0--------0-----0-----
D|-----5--------5--------------5--------5--------------5--------5--------------
A|-----------------------------------------------------------------------------
E|-----------------------------------------------------------------------------

							http://www.guitartabcreator.com
Instruments
{"strings":[[[".",".",".",".",".",".",".",".",".",".",".",".",".",".",".",".",".",".",".",".",".",".","."],[".",".",".",3,".",".",3,".",".",3,".",".",3,".",".",".",3,".",".",".",3,".","."],[".",".",0,".",".",0,".",".",0,".",".",0,".",".",".",0,".",".",".",0,".",".","."],[".",5,".",".",5,".",".",5,".",".",5,".",".",".",5,".",".",".",5,".",".",".","."],[".",".",".",".",".",".",".",".",".",".",".",".",".",".",".",".",".",".",".",".",".",".","."],[".",".",".",".",".",".",".",".",".",".",".",".",".",".",".",".",".",".",".",".",".",".","."]],[[".",".",".",".",".",".",".",".",".",".",".",".",".",".",".",".",".",".",".",".",".",".","."],[".",".",".",3,".",".",3,".",".",".",3,".",".",".",3,".",".",".",3,".",".",".",3],[".",".",0,".",".",0,".",".",".",0,".",".",".",0,".",".",".",0,".",".",".",0,"."],[".",5,".",".",5,".",".",".",4,".",".",".",4,".",".",".",2,".",".",".",2,".","."],[".",".",".",".",".",".",".",".",".",".",".",".",".",".",".",".",".",".",".",".",".",".","."],[".",".",".",".",".",".",".",".",".",".",".",".",".",".",".",".",".",".",".",".",".",".","."]],[[".",".",".",".",".",".",".",".",".",".",".",".",".",".",".",".",".","."],[".",".",".",3,".",".",".",3,".",".",".",5,".",".",5,".",".","."],[".",".",0,".",".",".",0,".",".",".",5,".",".",5,".",5,".","."],[".",0,".",".",".",0,".",".",".",5,".",".",5,".",".",".",".","."],[".",".",".",".",".",".",".",".",".",".",".",".",".",".",".",".",".","."],[".",".",".",".",".",".",".",".",".",".",".",".",".",".",".",".",".","."]],[[".",".",".",".",".",".",".",".",".",".",".",".",".",".",".",".",".",".",".",".",".",".",".",".","."],[".",".",".",4,".",".",4,".",".",".",".",3,".",".",3,".",".",".",".",3,".",".",3,".","."],[".",".",5,".",".",5,".",5,".",".",0,".",".",0,".",0,".",".",0,".",".",0,".",0,"."],[".",5,".",".",5,".",".",".",".",5,".",".",5,".",".",".",".",5,".",".",5,".",".",".","."],[".",".",".",".",".",".",".",".",".",".",".",".",".",".",".",".",".",".",".",".",".",".",".",".","."],[".",".",".",".",".",".",".",".",".",".",".",".",".",".",".",".",".",".",".",".",".",".",".",".","."]]],"numberofstrings":6,"notes":["E","B","G","D","A","E","B"],"capo":0,"stringnotes":["E4","B3","G3","D3","A2","E2"],"comments":["Intro","Estrofa","",""],"timing":[[null,null,"W","W","W","W","W","W","W","W","W","W","W","W",null,"W","W","W",null,"W","W","W"],[null,null,"W","W","W","W","W","W",null,"W","W","W",null,"W","W","W",null,"W","W","W",null,"W","W","W"],[null,null,"W","W","W",null,"W","W","W",null,"W","W","W","W","W","W","W"],[null,null,"W","W","W","W","W","W","W",null,"W","W","W","W","W","W","W",null,"W","W","W","W","W","W","W"]],"timingvisible":false,"tabcounter":25,"stave":3,"totalstaves":4,"instrument":"6guitar","selectedtuning":"6_standard","version":"13"}

Member for

6 months
Submitted by matiasbarmat on Sun, 2020-08-09 16:18