This town

Chords

01234567891011121314151617181920212223
E
B
G
D
A
E
B
0 1 2 3 4 5 6 7 8 9 10 11 12 13 14 15 16 17 18 19 20 21 22 23
(/) Slide Up  (\) Slide Down  (h) Hammer On  (p) Pull Off  (b) Bend (r) Release (v) Vibrato

Arpegio en G

E|--------3-----3-----3-----3--------3-----3-----3-----3--------
B|--------0-----0-----0-----0--------0-----0-----0-----0--------
G|--------0-----0-----0-----0--------0-----0-----0-----0--------
D|--------------------------------------------------------------
A|--------------------------------------------------------------
E|-----3-----3-----3-----3--------3-----3-----3-----3-----------

en Em

E|--------0-----0-----0-----0-----0-----0-----0-----0-----------
B|--------0-----0-----0-----0-----0-----0-----0-----0-----------
G|--------0-----0-----0-----0-----0-----0-----0-----0-----------
D|--------------------------------------------------------------
A|--------------------------------------------------------------
E|-----0-----0-----0-----0-----0-----0-----0-----0--------------

en C

E|--------0-----0-----0-----0-----0-----0-----0-----0--------
B|--------1-----1-----1-----1-----1-----1-----1-----1--------
G|--------0-----0-----0-----0-----0-----0-----0-----0--------
D|-----------------------------------------------------------
A|-----3-----3-----3-----3-----3-----3-----3-----3-----------
E|-----------------------------------------------------------

Puente   en (Am y D)

E|--------0-----0-----0-----0-----------2-----2-----2-----2-----
B|--------1-----1-----1-----1-----------3-----3-----3-----3-----
G|--------2-----2-----2-----2-----------2-----2-----2-----2-----
D|-----------------------------------0-----0-----0-----0--------
A|-----0-----0-----0-----0--------------------------------------
E|--------------------------------------------------------------

en G , G/F#  y Em

E|--------3-----3-----3-----3-----------0-----0-----0-----0-----
B|--------0-----0-----0-----0-----------0-----0-----0-----0-----
G|--------0-----0-----0-----0-----------0-----0-----0-----0-----
D|--------------------------------------------------------------
A|--------------------------------------------------------------
E|-----3-----3-----2-----2-----------0-----0-----0-----0--------

							http://www.guitartabcreator.com
Instruments
{"strings":[[[".","_",3,".",3,".",3,".",3,".",".",3,".",3,".",3,".",3,".","."],[".","_",0,".",0,".",0,".",0,".",".",0,".",0,".",0,".",0,".","."],[".","_",0,".",0,".",0,".",0,".",".",0,".",0,".",0,".",0,".","."],[".","_",".",".",".",".",".",".",".",".",".",".",".",".",".",".",".",".",".","."],[".","_",".",".",".",".",".",".",".",".",".",".",".",".",".",".",".",".",".","."],[".",3,".",3,".",3,".",3,".",".",3,".",3,".",3,".",3,".",".","."]],[[".",".",0,".",0,".",0,".",0,".",0,".",0,".",0,".",0,".",".","."],[".",".",0,".",0,".",0,".",0,".",0,".",0,".",0,".",0,".",".","."],[".",".",0,".",0,".",0,".",0,".",0,".",0,".",0,".",0,".",".","."],[".",".",".",".",".",".",".",".",".",".",".",".",".",".",".",".",".",".",".","."],[".",".",".",".",".",".",".",".",".",".",".",".",".",".",".",".",".",".",".","."],[".",0,".",0,".",0,".",0,".",0,".",0,".",0,".",0,".",".",".","."]],[[".",".",0,".",0,".",0,".",0,".",0,".",0,".",0,".",0,".","."],[".",".",1,".",1,".",1,".",1,".",1,".",1,".",1,".",1,".","."],[".",".",0,".",0,".",0,".",0,".",0,".",0,".",0,".",0,".","."],[".",".",".",".",".",".",".",".",".",".",".",".",".",".",".",".",".",".","."],[".",3,".",3,".",3,".",3,".",3,".",3,".",3,".",3,".",".","."],[".",".",".",".",".",".",".",".",".",".",".",".",".",".",".",".",".",".","."]],[[".",".",0,".",0,".",0,".",0,".",".",".",2,".",2,".",2,".",2,"."],[".",".",1,".",1,".",1,".",1,".",".",".",3,".",3,".",3,".",3,"."],[".",".",2,".",2,".",2,".",2,".",".",".",2,".",2,".",2,".",2,"."],[".",".",".",".",".",".",".",".",".",".",".",0,".",0,".",0,".",0,".","."],[".",0,".",0,".",0,".",0,".",".",".",".",".",".",".",".",".",".",".","."],[".",".",".",".",".",".",".",".",".",".",".",".",".",".",".",".",".",".",".","."]],[[".",".",3,".",3,".",3,".",3,".",".",".",0,".",0,".",0,".",0,"."],[".",".",0,".",0,".",0,".",0,".",".",".",0,".",0,".",0,".",0,"."],[".",".",0,".",0,".",0,".",0,".",".",".",0,".",0,".",0,".",0,"."],[".",".",".",".",".",".",".",".",".",".",".",".",".",".",".",".",".",".",".","."],[".",".",".",".",".",".",".",".",".",".",".",".",".",".",".",".",".",".",".","."],[".",3,".",3,".",2,".",2,".",".",".",0,".",0,".",0,".",0,".","."]]],"numberofstrings":6,"notes":["E","B","G","D","A","E","B"],"capo":0,"stringnotes":["E4","B3","G3","D3","A2","E2"],"comments":["Arpegio en G","en Em","en C","Puente en (Am y D)","en G , G/F# y Em"],"timing":[[null,null,"W","W","W","W","W","W","W","W",null,"W","W","W","W","W","W","W","W"],[null,null,"W","W","W","W",null,"W",null,"W",null,"W",null,"W",null,"W",null,"W"],[null,null,"W","W",null,"W",null,"W",null,"W",null,"W",null,"W",null,"W",null,"W",null,"W"],[null,null,"W",null,"W",null,"W",null,"W","W",null,null,null,"W","W",null,"W",null,"W","W"],[null,null,"W",null,"W",null,"W",null,"W","W",null,null,"W",null,"W",null,"W",null,"W","W","W"]],"timingvisible":false,"tabcounter":20,"stave":4,"totalstaves":5,"instrument":"6guitar","selectedtuning":"6_standard","version":"13"}

Member for

8 months
Submitted by matiasbarmat on Wed, 2020-10-07 12:31