Señorita

Chords

01234567891011121314151617181920212223
E
B
G
D
A
E
B
0 1 2 3 4 5 6 7 8 9 10 11 12 13 14 15 16 17 18 19 20 21 22 23
(/) Slide Up  (\) Slide Down  (h) Hammer On  (p) Pull Off  (b) Bend (r) Release (v) Vibrato

Intro

E|--------0--------0-----0--------0-----0-----------0--------0-----0--------0-----0-----
B|--------1--------1-----1--------1-----1-----------1--------1-----1--------1-----1-----
G|--------2--------2-----2--------2-----2-----------0--------0-----0--------0-----0-----
D|--------------------------------------------------------------------------------------
A|-----0-----0--0-----0-----0--0-----0-----------3-----3--3-----3-----3--3-----3--------
E|--------------------------------------------------------------------------------------



E|--------0--------0-----0--------0-----0--------0--------0--------3--------3-----3-----
B|--------1--------1-----1--------1-----1--------0--------0--------3--------3-----3-----
G|--------2--------2-----2--------2-----2--------0--------0--------0--------0-----0-----
D|-----3-----3--3-----3-----3--3-----3--------------------------------------------------
A|--------------------------------------------------------------------------------------
E|--------------------------------------------0-----0--0--------3-----3--3-----3--------

							http://www.guitartabcreator.com
Instruments
{"strings":[[[".",".",0,".",".",0,".",0,".",".",0,".",0,".",".",".",0,".",".",0,".",0,".",".",0,".",0,"."],[".",".",1,".",".",1,".",1,".",".",1,".",1,".",".",".",1,".",".",1,".",1,".",".",1,".",1,"."],[".",".",2,".",".",2,".",2,".",".",2,".",2,".",".",".",0,".",".",0,".",0,".",".",0,".",0,"."],[".",".",".",".",".",".",".",".",".",".",".",".",".",".",".",".",".",".",".",".",".",".",".",".",".",".",".","."],[".",0,".",0,0,".",0,".",0,0,".",0,".",".",".",3,".",3,3,".",3,".",3,3,".",3,".","."],[".",".",".",".",".",".",".",".",".",".",".",".",".",".",".",".",".",".",".",".",".",".",".",".",".",".",".","."]],[[".",".",0,".",".",0,".",0,".",".",0,".",0,".",".",0,".",".",0,".",".",3,".",".",3,".",3,"."],[".",".",1,".",".",1,".",1,".",".",1,".",1,".",".",0,".",".",0,".",".",3,".",".",3,".",3,"."],[".",".",2,".",".",2,".",2,".",".",2,".",2,".",".",0,".",".",0,".",".",0,".",".",0,".",0,"."],[".",3,".",3,3,".",3,".",3,3,".",3,".",".",".",".",".",".",".",".",".",".",".",".",".",".",".","."],[".",".",".",".",".",".",".",".",".",".",".",".",".",".",".",".",".",".",".",".",".",".",".",".",".",".",".","."],[".",".",".",".",".",".",".",".",".",".",".",".",".",".",0,".",0,0,".",".",3,".",3,3,".",3,".","."]]],"numberofstrings":6,"notes":["E","B","G","D","A","E","B"],"capo":0,"stringnotes":["E4","B3","G3","D3","A2","E2"],"comments":["Intro",""],"timing":[[null,null,"W","W","W","W","W","W","W","W","W","W",null,"W",null,null,"W","W","W","W","W","W","W","W","W","W","W",null,"W"],[null,null,"W","W","W","W","W","W","W","W","W","W","W","W","W",null,"W","W","W","W",null,"W","W","W","W","W","W","W","W"]],"timingvisible":false,"tabcounter":28,"stave":1,"totalstaves":2,"instrument":"6guitar","selectedtuning":"6_standard","version":"13"}

Member for

4 months
Submitted by matiasbarmat on Sat, 2020-08-01 09:45