Romaria

Chords

01234567891011121314151617181920212223
E
B
G
D
A
E
B
0 1 2 3 4 5 6 7 8 9 10 11 12 13 14 15 16 17 18 19 20 21 22 23
(/) Slide Up  (\) Slide Down  (h) Hammer On  (p) Pull Off  (b) Bend (r) Release (v) Vibrato

Intro

E|-----2--------2h3p2----------------3----------------
B|-----------3---------3---------------------0--------
G|--------2---------------2-----2h4-----0h2-----------
D|-----0----------------------------------------------
A|----------------------------------------------------
E|------------------------------3---------------------



E|-----2--------2h3p2----------------3----------------
B|-----------3---------3---------------------0--------
G|--------2---------------2-----2h4-----0h2-----------
D|-----0----------------------------------------------
A|----------------------------------------------------
E|------------------------------3---------------------



E|-----2--------2h3p2-----------------------------------
B|-----------3------------3-----------0-----------------
G|--------2------------------2-----2--------0-----------
D|-----0---------------------------------2--------0-----
A|---------------------------------------------2--------
E|---------------------------------3-----3-----3--------

							http://www.guitartabcreator.com
Instruments
{"strings":[[[".",2,".",".",2,"h",3,"p",2,".",".",".",".",".",".",3,".",".",".",".",".","."],[".",".",".",3,".",".",".",".",".",3,".",".",".",".",".",".",".",".",".",0,".","."],[".",".",2,".",".",".",".",".",".",".",2,".",2,"h",4,".",0,"h",2,".",".","."],[".",0,".",".",".",".",".",".",".",".",".",".",".",".",".",".",".",".",".",".",".","."],[".",".",".",".",".",".",".",".",".",".",".",".",".",".",".",".",".",".",".",".",".","."],[".",".",".",".",".",".",".",".",".",".",".",".",3,".",".",".",".",".",".",".",".","."]],[[".",2,".",".",2,"h",3,"p",2,".",".",".",".",".",".",3,".",".",".",".",".","."],[".",".",".",3,".",".",".",".",".",3,".",".",".",".",".",".",".",".",".",0,".","."],[".",".",2,".",".",".",".",".",".",".",2,".",2,"h",4,".",0,"h",2,".",".","."],[".",0,".",".",".",".",".",".",".",".",".",".",".",".",".",".",".",".",".",".",".","."],[".",".",".",".",".",".",".",".",".",".",".",".",".",".",".",".",".",".",".",".",".","."],[".",".",".",".",".",".",".",".",".",".",".",".",3,".",".",".",".",".",".",".",".","."]],[[".",2,".",".",2,"h",3,"p",2,".",".",".",".",".",".",".",".",".",".","."],[".",".",".",3,".",".",".",".",".",".",3,".",".",".",0,".",".",".",".","."],[".",".",2,".",".",".",".",".",".",".",".",2,".",2,".",".",0,".",".","."],[".",0,".",".",".",".",".",".",".",".",".",".",".",".",".",2,".",".",0,"."],[".",".",".",".",".",".",".",".",".",".",".",".",".",".",".",".",".",2,".","."],[".",".",".",".",".",".",".",".",".",".",".",".",".",3,".",3,".",3,".","."]]],"numberofstrings":6,"notes":["E","B","G","D","A","E","B"],"capo":0,"stringnotes":["E4","B3","G3","D3","A2","E2"],"comments":["Intro","",""],"timing":[[null,null,"W",null,"W","W",null,"W",null,"W","W","W",null,"W","W","W","W","W",null,"W","W"],[null,null,"W","W","W","W",null,"W",null,"W",null,"W",null,"W",null,"W","W","W",null,"W","W"],[null,null,"W","W","W","W",null,"W","W","W",null,"W","W",null,null,"W","W","W","W","W"]],"timingvisible":false,"tabcounter":20,"stave":2,"totalstaves":3,"instrument":"6guitar","selectedtuning":"6_standard","version":"13"}

Member for

3 months 1 week
Submitted by matiasbarmat on Sun, 2020-05-24 15:41