Musica que ocupa spreen 2

01234567891011121314151617181920212223
E
B
G
D
A
E
B
0 1 2 3 4 5 6 7 8 9 10 11 12 13 14 15 16 17 18 19 20 21 22 23
(/) Slide Up  (\) Slide Down  (h) Hammer On  (p) Pull Off  (b) Bend (r) Release (v) Vibrato

Arpegio

E|-----------------3-----------------------------------1--3--1----------------
B|--------------3--------------------6--------------3-----------3p1-----------
G|-----------3--------------------6--------------2-------------------2--------
D|--------5--------------------7--------------0-----------0-------------------
A|--------------------------0-------------------------------------------------
E|----------------------------------------------------------------------------



E|-----------------3-----------------------------------1--1--------
B|--------------3--------------------6--------------3-----3--------
G|-----------3--------------------6--------------2--------2--------
D|--------5--------------------7--------------0-----------0--------
A|--------------------------0--------------------------------------
E|-----------------------------------------------------------------



E|-----------------3-----------------------------------1--3--1----------------
B|--------------3--------------------6--------------3-----------3p1-----------
G|-----------3--------------------6--------------2-------------------2--------
D|--------5--------------------7--------------0-----------0-------------------
A|--------------------------0-------------------------------------------------
E|----------------------------------------------------------------------------



E|-----------------3--------------------------1-----1-----1--------
B|--------------3--------------------6--------3-----3-----3--------
G|-----------3--------------------6-----------2-----2-----2--------
D|--------5--------------------7--------------0-----0-----0--------
A|--------------------------0--------------------------------------
E|-----------------------------------------------------------------

							http://www.guitartabcreator.com
Chords

Instruments
{"strings":[[["_","_","_","_","_",3,"_","_","_","_","_","_","_","_","_","_","_",1,3,1,"_","_","_","_","_","_"],["_","_","_","_",3,"_","_","_","_","_","_",6,"_","_","_","_",3,"_","_","_",3,"p",1,"_","_","_"],["_","_","_",3,"_","_","_","_","_","_",6,"_","_","_","_",2,"_","_","_","_","_","_","_",2,"_","_"],["_","_",5,"_","_","_","_","_","_",7,"_","_","_","_",0,"_","_","_",0,"_","_","_","_","_","_","_"],["_","_","_","_","_","_","_","_",0,"_","_","_","_","_","_","_","_","_","_","_","_","_","_","_","_","_"],["_","_","_","_","_","_","_","_","_","_","_","_","_","_","_","_","_","_","_","_","_","_","_","_","_","_"]],[["_","_","_","_","_",3,"_","_","_","_","_","_","_","_","_","_","_",1,1,"_","_"],["_","_","_","_",3,"_","_","_","_","_","_",6,"_","_","_","_",3,"_",3,"_","_"],["_","_","_",3,"_","_","_","_","_","_",6,"_","_","_","_",2,"_","_",2,"_","_"],["_","_",5,"_","_","_","_","_","_",7,"_","_","_","_",0,"_","_","_",0,"_","_"],["_","_","_","_","_","_","_","_",0,"_","_","_","_","_","_","_","_","_","_","_","_"],["_","_","_","_","_","_","_","_","_","_","_","_","_","_","_","_","_","_","_","_","_"]],[["_","_","_","_","_",3,"_","_","_","_","_","_","_","_","_","_","_",1,3,1,"_","_","_","_","_","_"],["_","_","_","_",3,"_","_","_","_","_","_",6,"_","_","_","_",3,"_","_","_",3,"p",1,"_","_","_"],["_","_","_",3,"_","_","_","_","_","_",6,"_","_","_","_",2,"_","_","_","_","_","_","_",2,"_","_"],["_","_",5,"_","_","_","_","_","_",7,"_","_","_","_",0,"_","_","_",0,"_","_","_","_","_","_","_"],["_","_","_","_","_","_","_","_",0,"_","_","_","_","_","_","_","_","_","_","_","_","_","_","_","_","_"],["_","_","_","_","_","_","_","_","_","_","_","_","_","_","_","_","_","_","_","_","_","_","_","_","_","_"]],[["_","_","_","_","_",3,"_","_","_","_","_","_","_","_",1,"_",1,"_",1,"_","_"],["_","_","_","_",3,"_","_","_","_","_","_",6,"_","_",3,"_",3,"_",3,"_","_"],["_","_","_",3,"_","_","_","_","_","_",6,"_","_","_",2,"_",2,"_",2,"_","_"],["_","_",5,"_","_","_","_","_","_",7,"_","_","_","_",0,"_",0,"_",0,"_","_"],["_","_","_","_","_","_","_","_",0,"_","_","_","_","_","_","_","_","_","_","_","_"],["_","_","_","_","_","_","_","_","_","_","_","_","_","_","_","_","_","_","_","_","_"]]],"numberofstrings":6,"notes":["E","B","G","D","A","E","B"],"capo":0,"stringnotes":["E4","B3","G3","D3","A2","E2"],"comments":["Arpegio","","",""],"timing":[["W","W","W","W","W","W","W","W","W","W","W","W","W","W","W","W","W","W","W","W","W","W","W","W","W","W"],["W","W","W","W","W","W","W","W","W","W","W","W","W","W","W","W","W","W","W","W","W"],["W","W","W","W","W","W","W","W","W","W","W","W","W","W","W","W","W","W","W","W","W","W","W","W","W","W"],["W","W","W","W","W","W","W","W","W","W","W","W","W","W","W","W","W","W","W","W","W"]],"timingvisible":false,"tabcounter":21,"stave":3,"totalstaves":4,"instrument":"6guitar","selectedtuning":"6_standard","version":"13"}

Member for

1 year 2 months
Submitted by matiasbarmat on Fri, 2021-06-04 15:36