Hotel California

Chords

01234567891011121314151617181920212223
E
B
G
D
A
E
B
0 1 2 3 4 5 6 7 8 9 10 11 12 13 14 15 16 17 18 19 20 21 22 23
(/) Slide Up  (\) Slide Down  (h) Hammer On  (p) Pull Off  (b) Bend (r) Release (v) Vibrato

Intro Arpegio

E|-----7--------------7--------------------------------9---------------
B|-----7--------7--------------------11------------11-----11-----------
G|-----7-----7-----7--------7--9-----9----------9-------------9--------
D|-----------------------------------11-----11-------------------------
A|-----------------------------------9---------------------------------
E|-----7---------------------------------------------------------------



E|--5-----------5-----------------5-----7-----------------7--------
B|--5--------5-----5-----------5--------9-----------9--------------
G|--6-----6-----------------6-----------9-----9--------9-----------
D|--7--7-----------------7--------------9--9-----9-----------------
A|--------------------------------------7--------------------------
E|--5-----------------5--------------------------------------------

							http://www.guitartabcreator.com
Instruments
{"strings":[[[".",7,".",".",".",".",7,".",".",".",".",".",".",".",".",".",9,".",".",".","."],[".",7,".",".",7,".",".",".",".",".",".",11,".",".",".",11,".",11,".",".","."],[".",7,".",7,".",7,".",".",7,9,".",9,".",".",9,".",".",".",9,".","."],[".",".",".",".",".",".",".",".",".",".",".",11,".",11,".",".",".",".",".",".","."],[".",".",".",".",".",".",".",".",".",".",".",9,".",".",".",".",".",".",".",".","."],[".",7,".",".",".",".",".",".",".",".",".",".",".",".",".",".",".",".",".",".","."]],[[5,".",".",".",5,".",".",".",".",".",5,".",7,".",".",".",".",".",7,".","."],[5,".",".",5,".",5,".",".",".",5,".",".",9,".",".",".",9,".",".",".","."],[6,".",6,".",".",".",".",".",6,".",".",".",9,".",9,".",".",9,".",".","."],[7,7,".",".",".",".",".",7,".",".",".",".",9,9,".",9,".",".",".",".","."],[".",".",".",".",".",".",".",".",".",".",".",".",7,".",".",".",".",".",".",".","."],[5,".",".",".",".",".",5,".",".",".",".",".",".",".",".",".",".",".",".",".","."]]],"numberofstrings":6,"notes":["E","B","G","D","A","E","B"],"capo":0,"stringnotes":["E4","B3","G3","D3","A2","E2"],"comments":["Intro Arpegio",""],"timing":[[null,null,"W",null,"W","W","W","W",null,"W","W",null,"W",null,"W","W","W","W","W","W"],[null,"W","W","W","W","W","W","W",null,"W","W","W",null,"W","W","W",null,"W","W","W"]],"timingvisible":false,"tabcounter":21,"stave":1,"totalstaves":2,"instrument":"6guitar","selectedtuning":"6_standard","version":"13"}

Member for

4 months
Submitted by matiasbarmat on Fri, 2020-07-31 10:01