Dani California

01234567891011121314151617181920212223
E
B
G
D
A
E
B
0 1 2 3 4 5 6 7 8 9 10 11 12 13 14 15 16 17 18 19 20 21 22 23
(/) Slide Up  (\) Slide Down  (h) Hammer On  (p) Pull Off  (b) Bend (r) Release (v) Vibrato

Intro y Estrofa

E|-----------5--x-----------3--x-----------5--x-----------5--x--------------------
B|-----------5--x-----------3--x-----------6--x-----------5--x--------------------
G|-----------5--x-----------4--x-----------7--x-----------5--x--------------------
D|-----------7--x-----------5--x-----------7--x-----------7--x--------x--9--------
A|-----------7--x-----------5--x-----5--5--5--x-----------7--x--------------------
E|-----5--5--5--x-----3--3--3--x--------------x-----5--5--5--x--------------------

Ultima vuelta de estrofa

E|-----------5--x-----------3--x-----5--5--5--5--5--5--5--5--5--5--5--5-----------
B|-----------5--x-----------3--x-----6--6--6--6--6--6--6--6--6--6--6--6-----------
G|-----------5--x-----------4--x-----7--7--7--7--7--7--7--7--7--7--7--7-----------
D|-----------7--x-----------5--x-----7--7--7--7--7--7--7--7--7--7--7--7-----------
A|-----------7--x-----------5--x-----5--5--5--5--5--5--5--5--5--5--5--5-----------
E|-----5--5--5--x-----3--3--3--x--------------------------------------------------

Arreglo Estrofa vueltas 5,6,9 y 10

E|-----------------------------------------------------------------------------------
B|---------------------------------------------------------------5h6-----------------
G|--------------5h7p5--------------------4h5p4--------5\7--x--x-------7--------------
D|-----7--x--x---------7-----x--5--x--x---------5--x---------------------x--7--x--x--
A|-----------------------------------------------------------------------------------
E|-----------------------------------------------------------------------------------



E|---------------------
B|-----6p5-------------
G|----------7p5--------
D|---------------------
A|---------------------
E|---------------------

Estribillo

E|--------------------x--x----------------------------------------------------------
B|--------------------x--x----------------------------------------------------------
G|--------------------x--x-----5--5--5--5--5-7--7--7--7--7--7-----------------------
D|-----3--3--3--3--3--x--x-----5--5--5--5--5-7--7--7--7--7--7-----5--5--5-----x--3--
A|-----3--3--3--3--3--x--x-----3--3--3--0--3-5--5--5--5--5--5-----5--5--5-----------
E|-----1--1--1--1--1--x--x----------------------------------------3--3--3-----------



E|--
B|--
G|--
D|--
A|--
E|--

Stave 7:

E|--
B|--
G|--
D|--
A|--
E|--

							http://www.guitartabcreator.com
Chords

Instruments
{"strings":[[[".",".",".",5,"x",".",".",".",3,"x",".",".",".",5,"x",".",".",".",5,"x",".",".",".",".",".","."],[".",".",".",5,"x",".",".",".",3,"x",".",".",".",6,"x",".",".",".",5,"x",".",".",".",".",".","."],[".",".",".",5,"x",".",".",".",4,"x",".",".",".",7,"x",".",".",".",5,"x",".",".",".",".",".","."],[".",".",".",7,"x",".",".",".",5,"x",".",".",".",7,"x",".",".",".",7,"x",".",".","x",9,".","."],[".",".",".",7,"x",".",".",".",5,"x",".",5,5,5,"x",".",".",".",7,"x",".",".",".",".",".","."],[".",5,5,5,"x",".",3,3,3,"x",".",".",".",".","x",".",5,5,5,"x",".",".",".",".",".","."]],[[".",".",".",5,"x",".",".",".",3,"x",".",5,5,5,5,5,5,5,5,5,5,5,5,".",".","."],[".",".",".",5,"x",".",".",".",3,"x",".",6,6,6,6,6,6,6,6,6,6,6,6,".",".","."],[".",".",".",5,"x",".",".",".",4,"x",".",7,7,7,7,7,7,7,7,7,7,7,7,".",".","."],[".",".",".",7,"x",".",".",".",5,"x",".",7,7,7,7,7,7,7,7,7,7,7,7,".",".","."],[".",".",".",7,"x",".",".",".",5,"x",".",5,5,5,5,5,5,5,5,5,5,5,5,".",".","."],[".",5,5,5,"x",".",3,3,3,"x",".",".",".",".",".",".",".",".",".",".",".",".",".",".",".","."]],[[".",".",".",".",".",".",".",".",".",".",".",".",".",".",".",".",".",".",".",".",".",".",".",".",".",".",".",".",".",".",".",".",".",".","."],[".",".",".",".",".",".",".",".",".",".",".",".",".",".",".",".",".",".",".",".",".",".",".",".",".",".",".",5,"h",6,".",".",".",".","."],[".",".",".",".",5,"h",7,"p",5,".",".",".",".",".",".",4,"h",5,"p",4,".",".",5,"\\",7,"x","x",".",".",".",7,".",".",".","."],[".",7,"x","x",".",".",".",".",".",7,".","x",5,"x","x",".",".",".",".",".",5,"x",".",".",".",".",".",".",".",".",".","x",7,"x","x"],[".",".",".",".",".",".",".",".",".",".",".",".",".",".",".",".",".",".",".",".",".",".",".",".",".",".",".",".",".",".",".",".",".",".","."],[".",".",".",".",".",".",".",".",".",".",".",".",".",".",".",".",".",".",".",".",".",".",".",".",".",".",".",".",".",".",".",".",".",".","."]],[[".",".",".",".",".",".",".",".","."],[".",6,"p",5,".",".",".",".","."],[".",".",".",".",7,"p",5,".","."],[".",".",".",".",".",".",".",".","."],[".",".",".",".",".",".",".",".","."],[".",".",".",".",".",".",".",".","."]],[[".",".",".",".",".",".","x","x",".",".",".",".",".",".",".",".",".",".",".",".",".",".",".",".",".",".",".","."],[".",".",".",".",".",".","x","x",".",".",".",".",".",".",".",".",".",".",".",".",".",".",".",".",".",".",".","."],[".",".",".",".",".",".","x","x",".",5,5,5,5,5,"\\",7,7,7,7,7,7,".",".",".",".",".",".","."],[".",3,3,3,3,3,"x","x",".",5,5,5,5,5,"\\",7,7,7,7,7,7,".",5,5,5,".","x",3],[".",3,3,3,3,3,"x","x",".",3,3,3,0,3,"\\",5,5,5,5,5,5,".",5,5,5,".",".","."],[".",1,1,1,1,1,"x","x",".",".",".",".",".",".",".",".",".",".",".",".",".",".",3,3,3,".",".","."]],[[],[],[],[],[],[]],[[],[],[],[],[],[]]],"numberofstrings":6,"notes":["E","B","G","D","A","E","B"],"capo":0,"stringnotes":["E4","B3","G3","D3","A2","E2"],"comments":["Intro y Estrofa","Ultima vuelta de estrofa","Arreglo Estrofa vueltas 5,6,9 y 10","","Estribillo","","Stave 7:"],"timing":[[null,"W","W","W","W",null,null,"W","W","W",null,null,"W","W","W",null,null,"W","W","W",null,null,null,null,"W"],[null,null,"W","W","W",null,null,"W","W","W",null,null,"W","W","W","W","W","W","W","W","W","W","W","W"],[null,null,"W",null,null,"W",null,"W",null,"W","W",null,null,"W",null,null,"W","W","W",null,"W","W",null,"W",null,"W",null,null,"W",null,"W","W",null,"W"],[null,null,"W",null,"W","W",null,"W"],[null,null,"W","W","W","W","W",null,"W",null,"W","W",null,"W","W",null,"W","W","W","W","W","W",null,"W","W","W",null,null,"W"],[],[]],"timingvisible":false,"tabcounter":28,"stave":5,"totalstaves":7,"instrument":"6guitar","selectedtuning":"6_standard","version":"13"}

Member for

10 months 3 weeks
Submitted by matiasbarmat on Fri, 2021-01-15 13:36