Cactus

Chords

01234567891011121314151617181920212223
E
B
G
D
A
E
B
0 1 2 3 4 5 6 7 8 9 10 11 12 13 14 15 16 17 18 19 20 21 22 23
(/) Slide Up  (\) Slide Down  (h) Hammer On  (p) Pull Off  (b) Bend (r) Release (v) Vibrato

Intro y Estrofa (x4) (Am E7/G# G Dm)

E|-----------------------------------------------------------------------------------
B|-----1--------1-----------3--------3--------3--------3--------6--------------------
G|-----2--------------------4-----------------4-----------------7--------7-----------
D|-----2-----2-----2--------0-----0-----0-----5-----5-----3-----7-----7-----7--------
A|-----0--------------------------------------------------------5--------------------
E|--------------------------4-----------------3--------------------------------------

En tu nombre (x2) (Am Fdim F E7)

E|-----------------------------------------------------------------------------------
B|-----1--------1-----------1--------1--------1--------1--------0--------0-----------
G|-----2--------------------2-----------------2-----------------1--------------------
D|-----2-----2-----2--------0-----0-----0-----3-----3-----3-----0-----0-----0--------
A|-----0-----------------------------------------------------------------------------
E|--------------------------2-----------------1-----------------0--------------------

Puente

E|-----------------------------------------------------------1-----1-----
B|-----1--------1--------3--------3--------1--------1--------3-----------
G|-----2-----------------2-----------------0-----------------2--2-----2--
D|-----2-----2-----2-----3-----3-----3-----2-----2-----2-----0-----------
A|-----0-----------------2-----------------3-----------------------------
E|-----------------------------------------------------------------------



E|-----0--------------0-----------------0-------------------------------
B|-----0--------0-----0--------0--------0--------0----------------------
G|-----1-----1-----1--1-----1-----1-----1-----1-----1-----1h2--1--------
D|----------------------------------------------------------------------
A|----------------------------------------------------------------------
E|-----0--------------0-----------------0-----------------0-------------

Instrumental Pre Estribillo

E|-----0--0--x--0-----0--0--x--0--------------1--1--x--1-----1--1--x--1-----------
B|-----1--1--x--1-----1--1--x--1--------------0--0--x--0-----0--0--x--0-----------
G|-----2--2--x--2-----2--2--x--2--------------0--0--x--0-----0--0--x--0-----------
D|-----2--2--x--2-----2--2--x--2-----x--4-----0--0--x--0-----0--0--x--0-----x--2--
A|-----0--0--x--0-----0--0--x--0--------------x--x--x--x-----x--x--x--x-----------
E|--------------------------------------------3--3--x--3-----3--3--x--3-----------



E|--------------------------------------------------
B|-----1--------1-----3-----1--------1-----3--------
G|-----2--2-----------4-----2--2-----------4--------
D|-----3-----3--------5-----3-----3--------5--------
A|--------------------------------------------------
E|--------------------------------------------------

							http://www.guitartabcreator.com
Instruments
{"strings":[[[".",".",".",".",".",".",".",".",".",".",".",".",".",".",".",".",".",".",".",".",".",".",".",".",".",".","."],[".",1,".",".",1,".",".",".",3,".",".",3,".",".",3,".",".",3,".",".",6,".",".",".",".",".","."],[".",2,".",".",".",".",".",".",4,".",".",".",".",".",4,".",".",".",".",".",7,".",".",7,".",".","."],[".",2,".",2,".",2,".",".",0,".",0,".",0,".",5,".",5,".",3,".",7,".",7,".",7,".","."],[".",0,".",".",".",".",".",".",".",".",".",".",".",".",".",".",".",".",".",".",5,".",".",".",".",".","."],[".",".",".",".",".",".",".",".",4,".",".",".",".",".",3,".",".",".",".",".",".",".",".",".",".",".","."]],[[".",".",".",".",".",".",".",".",".",".",".",".",".",".",".",".",".",".",".",".",".",".",".",".",".",".","."],[".",1,".",".",1,".",".",".",1,".",".",1,".",".",1,".",".",1,".",".",0,".",".",0,".",".","."],[".",2,".",".",".",".",".",".",2,".",".",".",".",".",2,".",".",".",".",".",1,".",".",".",".",".","."],[".",2,".",2,".",2,".",".",0,".",0,".",0,".",3,".",3,".",3,".",0,".",0,".",0,".","."],[".",0,".",".",".",".",".",".",".",".",".",".",".",".",".",".",".",".",".",".",".",".",".",".",".",".","."],[".",".",".",".",".",".",".",".",2,".",".",".",".",".",1,".",".",".",".",".",0,".",".",".",".",".","."]],[[".",".",".",".",".",".",".",".",".",".",".",".",".",".",".",".",".",".",".",1,".",1,"."],[".",1,".",".",1,".",".",3,".",".",3,".",".",1,".",".",1,".",".",3,".",".","."],[".",2,".",".",".",".",".",2,".",".",".",".",".",0,".",".",".",".",".",2,2,".",2],[".",2,".",2,".",2,".",3,".",3,".",3,".",2,".",2,".",2,".",0,".",".","."],[".",0,".",".",".",".",".",2,".",".",".",".",".",3,".",".",".",".",".",".",".",".","."],[".",".",".",".",".",".",".",".",".",".",".",".",".",".",".",".",".",".",".",".",".",".","."]],[[".",0,".",".",".",".",0,".",".",".",".",".",0,".",".",".",".",".",".",".",".",".",".","."],[".",0,".",".",0,".",0,".",".",0,".",".",0,".",".",0,".",".",".",".",".",".",".","."],[".",1,".",1,".",1,1,".",1,".",1,".",1,".",1,".",1,".",1,"h",2,1,".","."],[".",".",".",".",".",".",".",".",".",".",".",".",".",".",".",".",".",".",".",".",".",".",".","."],[".",".",".",".",".",".",".",".",".",".",".",".",".",".",".",".",".",".",".",".",".",".",".","."],[".",0,".",".",".",".",0,".",".",".",".",".",0,".",".",".",".",".",0,".",".",".",".","."]],[[".",0,0,"x",0,".",0,0,"x",0,".",".",".",".",1,1,"x",1,".",1,1,"x",1,".",".","."],[".",1,1,"x",1,".",1,1,"x",1,".",".",".",".",0,0,"x",0,".",0,0,"x",0,".",".","."],[".",2,2,"x",2,".",2,2,"x",2,".",".",".",".",0,0,"x",0,".",0,0,"x",0,".",".","."],[".",2,2,"x",2,".",2,2,"x",2,".","x",4,".",0,0,"x",0,".",0,0,"x",0,".","x",2],[".",0,0,"x",0,".",0,0,"x",0,".",".",".",".","x","x","x","x",".","x","x","x","x",".",".","."],[".",".",".",".",".",".",".",".",".",".",".",".",".",".",3,3,"x",3,".",3,3,"x",3,".",".","."]],[[".",".",".",".",".",".",".",".",".",".",".",".",".",".",".","."],[".",1,".",".",1,".",3,".",1,".",".",1,".",3,".","."],[".",2,2,".",".",".",4,".",2,2,".",".",".",4,".","."],[".",3,".",3,".",".",5,".",3,".",3,".",".",5,".","."],[".",".",".",".",".",".",".",".",".",".",".",".",".",".",".","."],[".",".",".",".",".",".",".",".",".",".",".",".",".",".",".","."]]],"numberofstrings":6,"notes":["E","B","G","D","A","E","B"],"capo":0,"stringnotes":["E4","B3","G3","D3","A2","E2"],"comments":["Intro y Estrofa (x4) (Am E7/G# G Dm)","En tu nombre (x2) (Am Fdim F E7)","Puente","","Instrumental Pre Estribillo",""],"timing":[[null,null,"W",null,"W","W","W",null,null,"W",null,"W","W","W",null,"W",null,"W","W","W",null,"W",null,"W","W","W"],[null,null,"W",null,"W","W","W",null,null,"W",null,"W","W","W",null,"W","W","W","W","W",null,"W",null,"W","W","W"],[null,null,"W",null,"W","W","W",null,"W",null,"W","W","W",null,"W",null,"W","W","W",null,"W","W","W","W"],[null,null,"W",null,"W","W","W",null,"W","W","W","W",null,"W",null,"W","W","W",null,"W",null,"W","W"],[null,null,"W","W",null,"W",null,"W","W",null,"W",null,null,"W",null,"W","W",null,"W",null,"W","W",null,"W",null,null,"W"],[null,null,"W","W","W","W",null,"W",null,"W","W","W","W",null,"W"]],"timingvisible":false,"tabcounter":16,"stave":5,"totalstaves":6,"instrument":"6guitar","selectedtuning":"6_standard","version":"13"}

Member for

6 months 3 weeks
Submitted by matiasbarmat on Fri, 2020-10-16 10:56