Beautiful

Chords

01234567891011121314151617181920212223
E
B
G
D
A
E
B
0 1 2 3 4 5 6 7 8 9 10 11 12 13 14 15 16 17 18 19 20 21 22 23
(/) Slide Up  (\) Slide Down  (h) Hammer On  (p) Pull Off  (b) Bend (r) Release (v) Vibrato

Arpegio Estrofa (F C G C)

E|-----------------------------------------3--------------------------------------------
B|-----------1--------------1-----------3-----3-----------------------------------------
G|--------2-----2--------0-----0--------------------------------------------------------
D|-----3-----------------------------------------------0--2-----------------x--2--------
A|--------------------3-----------------------------3--------3--------------------------
E|-----------------------------------3--------------------------------------------------

(Am Em F C)

E|-----------------------------------------------------------------
B|-----------1--------------0--------------1-----------------------
G|--------2-----2--------0-----0--------2-----2--------------------
D|-----------------------------------3-----------------0--2--------
A|-----0--------------2-----------------------------3--------3-----
E|-----------------------------------------------------------------

(F C G C)

E|-----------------------------------------3-----------------------
B|-----------1--------------1-----------3-----3--------------------
G|--------2-----2--------0-----0-----------------------------------
D|-----3-----------------------------------------------0--2--------
A|--------------------3-----------------------------3--------3-----
E|-----------------------------------3-----------------------------

Puente

E|-----0-----3-----0-----0-----3-----0-----
B|-----1-----3-----1-----1-----3-----1-----
G|-----2-----0-----0-----2-----0-----0-----
D|-----3-----0-----2-----3-----0-----2-----
A|-----------2-----3-----------2-----3-----
E|-----------3-----------------3-----------

							http://www.guitartabcreator.com
Instruments
{"strings":[[[".",".",".",".",".",".",".",".",".",".",".",".",".",3,".",".",".",".",".",".",".",".",".",".",".",".",".","."],[".",".",".",1,".",".",".",".",1,".",".",".",3,".",3,".",".",".",".",".",".",".",".",".",".",".",".","."],[".",".",2,".",2,".",".",0,".",0,".",".",".",".",".",".",".",".",".",".",".",".",".",".",".",".",".","."],[".",3,".",".",".",".",".",".",".",".",".",".",".",".",".",".",".",0,2,".",".",".",".",".","x",2,".","."],[".",".",".",".",".",".",3,".",".",".",".",".",".",".",".",".",3,".",".",3,".",".",".",".",".",".",".","."],[".",".",".",".",".",".",".",".",".",".",".",3,".",".",".",".",".",".",".",".",".",".",".",".",".",".",".","."]],[[".",".",".",".",".",".",".",".",".",".",".",".",".",".",".",".",".",".",".",".","."],[".",".",".",1,".",".",".",".",0,".",".",".",".",1,".",".",".",".",".",".","."],[".",".",2,".",2,".",".",0,".",0,".",".",2,".",2,".",".",".",".",".","."],[".",".",".",".",".",".",".",".",".",".",".",3,".",".",".",".",".",0,2,".","."],[".",0,".",".",".",".",2,".",".",".",".",".",".",".",".",".",3,".",".",3,"."],[".",".",".",".",".",".",".",".",".",".",".",".",".",".",".",".",".",".",".",".","."]],[[".",".",".",".",".",".",".",".",".",".",".",".",".",3,".",".",".",".",".",".","."],[".",".",".",1,".",".",".",".",1,".",".",".",3,".",3,".",".",".",".",".","."],[".",".",2,".",2,".",".",0,".",0,".",".",".",".",".",".",".",".",".",".","."],[".",3,".",".",".",".",".",".",".",".",".",".",".",".",".",".",".",0,2,".","."],[".",".",".",".",".",".",3,".",".",".",".",".",".",".",".",".",3,".",".",3,"."],[".",".",".",".",".",".",".",".",".",".",".",3,".",".",".",".",".",".",".",".","."]],[[".",0,".",3,".",0,".",0,".",3,".",0,"."],[".",1,".",3,".",1,".",1,".",3,".",1,"."],[".",2,".",0,".",0,".",2,".",0,".",0,"."],[".",3,".",0,".",2,".",3,".",0,".",2,"."],[".",".",".",2,".",3,".",".",".",2,".",3,"."],[".",".",".",3,".",".",".",".",".",3,".",".","."]]],"numberofstrings":6,"notes":["E","B","G","D","A","E","B"],"capo":0,"stringnotes":["E4","B3","G3","D3","A2","E2"],"comments":["Arpegio Estrofa (F C G C)","(Am Em F C)","(F C G C)","Puente"],"timing":[[null,null,"W","W","W","W",null,"W","W","W","W",null,null,"W","W","W",null,null,"W","W","W",null,null,null,null,null,"W"],[null,null,"W",null,"W","W",null,"W","W","W","W",null,"W","W","W","W",null,"W","W","W","W"],[null,null,"W","W","W","W",null,"W","W",null,"W",null,"W","W","W","W",null,"W","W","W",null,"W"],[null,null,"W",null,"W",null,"W",null,null,"W","W",null,"W"]],"timingvisible":false,"tabcounter":13,"stave":3,"totalstaves":4,"instrument":"6guitar","selectedtuning":"6_standard","version":"13"}

Member for

8 months
Submitted by matiasbarmat on Thu, 2020-11-19 11:11