Aces of spades

01234567891011121314151617181920212223
E
B
G
D
A
E
B
0 1 2 3 4 5 6 7 8 9 10 11 12 13 14 15 16 17 18 19 20 21 22 23
(/) Slide Up  (\) Slide Down  (h) Hammer On  (p) Pull Off  (b) Bend (r) Release (v) Vibrato

Intro

E|-----------------------------------------------
B|-----------------------------------------------
G|-----------------------------------------------
D|--------------------9--8--7--------x--4--------
A|-----7--7--7--7--7-----------------------------
E|-----0--0--0--0--0-----------------------------

Estrofa

E|-----3-----3-----3-----3-------------------------------------------------------------------------
B|-----3-----3-----3-----3-----------14----14--12--14--12--------14----14--12----------------------
G|-----4-----4-----4-----4-----------14----14--12--14--12--------14----14--12----------------------
D|-----5-----5-----5-----5-----------------------------------------------------14--12-----x--2-----
A|-----5-----5-----5-----5-----------------------------------------------------14--12--------------
E|-----3-----3-----3-----3--------0---------------------------0------------------------------------

Acorde D, acorde C, RIFF

E|-----2--------0-------------------------------------------------------------2-----0--------
B|-----3--------1--------14----14--12--14--12--------14----14--12-------------3-----1--------
G|-----2--------0--------14----14--12--14--12--------14----14--12-------------2-----0--------
D|-----0--------2--------------------------------------------------14--12-----0-----2--------
A|--------------3--------------------------------------------------14--12-----------3--------
E|--------------------0---------------------------0------------------------------------------

Parte C

E|-----------------------------------------------------------2-----2--------
B|-----------------------------------------------------------3-----4--------
G|-----9-----7--9--------------9--9--9--9--9--9--9--9--------2-----4--------
D|-----9-----7--9--------------9--9--9--9--9--9--9--9--------0-----4--------
A|-----7-----5--7--------------7--7--7--7--7--7--7--7--------------2--------
E|--------------------------------------------------------------------------

Final

E|-----2-----0-----2-----0--------------------------------------
B|-----3-----1-----3-----1--------------------------------------
G|-----2-----0-----2-----0-----------9--7--9-----9--7--9--------
D|-----0-----2-----0-----2-----------9--7--9-----9--7--9--------
A|-----------3-----------3-----------7--5--7-----7--5--7--------
E|--------------------------------------------------------------

							http://www.guitartabcreator.com
Chords

Instruments
{"strings":[[[".",".",".",".",".",".",".",".",".",".",".",".",".",".","."],[".",".",".",".",".",".",".",".",".",".",".",".",".",".","."],[".",".",".",".",".",".",".",".",".",".",".",".",".",".","."],[".",".",".",".",".",".",9,8,7,".",".","x",4,".","."],[".",7,7,7,7,7,".",".",".",".",".",".",".",".","."],[".",0,0,0,0,0,".",".",".",".",".",".",".",".","."]],[[".",3,".",3,".",3,".",3,".",".",".",".",".",".",".",".",".",".",".",".",".",".",".",".",".",".",".",".",".",".","."],[".",3,".",3,".",3,".",3,".",".",".",14,"b",".",14,12,14,12,".",".",14,"b",".",14,12,".",".",".",".",".","."],[".",4,".",4,".",4,".",4,".",".",".",14,"b",".",14,12,14,12,".",".",14,"b",".",14,12,".",".",".",".",".","."],[".",5,".",5,".",5,".",5,".",".",".",".",".",".",".",".",".",".",".",".",".",".",".",".",".",14,12,".","x",2,"."],[".",5,".",5,".",5,".",5,".",".",".",".",".",".",".",".",".",".",".",".",".",".",".",".",".",14,12,".",".",".","."],[".",3,".",3,".",3,".",3,".",".",0,".",".",".",".",".",".",".",".",0,".",".",".",".",".",".",".",".",".",".","."]],[[".",2,".",".",0,".",".",".",".",".",".",".",".",".",".",".",".",".",".",".",".",".",".",".",2,".",0,".","."],[".",3,".",".",1,".",".",14,"b",".",14,12,14,12,".",".",14,"b",".",14,12,".",".",".",3,".",1,".","."],[".",2,".",".",0,".",".",14,"b",".",14,12,14,12,".",".",14,"b",".",14,12,".",".",".",2,".",0,".","."],[".",0,".",".",2,".",".",".",".",".",".",".",".",".",".",".",".",".",".",".",".",14,12,".",0,".",2,".","."],[".",".",".",".",3,".",".",".",".",".",".",".",".",".",".",".",".",".",".",".",".",14,12,".",".",".",3,".","."],[".",".",".",".",".",".",0,".",".",".",".",".",".",".",".",0,".",".",".",".",".",".",".",".",".",".",".",".","."]],[[".",".",".",".",".",".",".",".",".",".",".",".",".",".",".",".",".",".",".",2,".",2,".","."],[".",".",".",".",".",".",".",".",".",".",".",".",".",".",".",".",".",".",".",3,".",4,".","."],[".",9,".",7,9,".",".",".",".",9,9,9,9,9,9,9,9,".",".",2,".",4,".","."],[".",9,".",7,9,".",".",".",".",9,9,9,9,9,9,9,9,".",".",0,".",4,".","."],[".",7,".",5,7,".",".",".",".",7,7,7,7,7,7,7,7,".",".",".",".",2,".","."],[".",".",".",".",".",".",".",".",".",".",".",".",".",".",".",".",".",".",".",".",".",".",".","."]],[[".",2,".",0,".",2,".",0,".",".",".",".",".",".",".",".",".",".",".","."],[".",3,".",1,".",3,".",1,".",".",".",".",".",".",".",".",".",".",".","."],[".",2,".",0,".",2,".",0,".",".",".",9,7,9,".",9,7,9,".","."],[".",0,".",2,".",0,".",2,".",".",".",9,7,9,".",9,7,9,".","."],[".",".",".",3,".",".",".",3,".",".",".",7,5,7,".",7,5,7,".","."],[".",".",".",".",".",".",".",".",".",".",".",".",".",".",".",".",".",".",".","."]]],"numberofstrings":6,"notes":["E","B","G","D","A","E","B"],"capo":0,"stringnotes":["E4","B3","G3","D3","A2","E2"],"comments":["Intro","Estrofa","Acorde D, acorde C, RIFF","Parte C","Final"],"timing":[[null,null,"W","W","W","W","W","W","W","W",null,null,null,"W"],[null,null,"W",null,null,null,"W","W","W",null,null,"W","W",null,null,"W","W","W","W",null,"W","W",null,null,"W","W","W","W",null,null,"W"],[null,null,"W",null,null,"W",null,null,"W",null,null,"W",null,"W","W",null,"W","W",null,null,"W","W",null,"W",null,"W",null,"W"],[null,null,"W",null,"W","W",null,null,null,null,"W","W","W","W","W","W","W","W",null,null,"W",null,"W"],[null,null,"W",null,"W",null,"W",null,"W",null,null,null,"W","W",null,"W","W","W","W"]],"timingvisible":false,"tabcounter":20,"stave":4,"totalstaves":5,"instrument":"6guitar","selectedtuning":"6_standard","version":"13"}

Member for

9 months 3 weeks
Submitted by matiasbarmat on Tue, 2020-11-24 15:57