Sound will begin in 5 seconds

tigo

Chords
01234567891011121314151617181920212223
E
B
G
D
A
E
B
0 1 2 3 4 5 6 7 8 9 10 11 12 13 14 15 16 17 18 19 20 21 22 23
Song Science #1: How Pros Use 6 Chords to Write Hit Songs
(/) Slide Up  (\) Slide Down  (h) Hammer On  (p) Pull Off  (b) Bend (r) Release (v) Vibrato

Stave 1:

E|--0--0--0--0--0--0--0--0--0--0--0--0--0--0--0--0--
B|--0--0--0--0--0--0--0--0--0--0--0--0--0--0--0--0--
G|--0--0--0--0--0--0--0--0--0--0--0--0--0--0--0--0--
D|--9--9--9--9--7--7--7--7--0--0--0--0--5--5--5--5--
A|--9--9--9--9--7--7--7--7--0--0--0--0--5--5--5--5--
E|--9--9--9--9--7--7--7--7--0--0--0--0--5--5--5--5--

Stave 2:

E|----------------------------------------------------------------------------------
B|----------------------------------------------------------------------------------
G|----------------------------------------------------------------------------------
D|-----9--x--x--x--x--x--9--7--x--x--x--x--x--7--5--x--x--x--x--x-------------0--0--
A|-----9--x--x--x--x--x--9--7--x--x--x--x--x--7--5--x--x--x--x--x-------------0--0--
E|-----9--x--x--x--x--x--9--7--x--x--x--x--x--7--5--x--x--x--x--x--5p4r0--5p4r0--0--

Stave 3:

E|--0--0--0--0--
B|--0--0--0--0--
G|--0--0--0--0--
D|--5--0--2--5--
A|--5--0--2--5--
E|--5--0--2--5--

Stave 4:

E|--0-----0-----0-----0--0-----0-----0-----0-----------------------------
B|--0-----0-----0-----0--0-----0-----0-----0-----------------------------
G|--0-----0-----0-----0--0-----0-----0-----0-----------------------------
D|--5-----7-----0-----9--7-----5-----7-----0--------------------------0--
A|--5-----7-----0-----9--7-----5-----7-----0--------------------------0--
E|--5-----7-----0-----9--7-----5-----7-----0-----9--7--5--5h7--4h5p4--0--

Stave 5:

E|--------------
B|--------------
G|--------------
D|--5--0--9--7--
A|--5--0--9--7--
E|--5--0--9--7--

http://www.guitartabcreator.com
Guitar Tab Creator is intended to store guitar tab created through the tool. It currently does not support in-line text editing. Any text you place in here will be lost. If you need to comment on your tab, please use the "Tab Notes" section located below.