Sound will begin in 5 seconds

Earth song

01234567891011121314151617181920212223
E
B
G
D
A
E
B
0 1 2 3 4 5 6 7 8 9 10 11 12 13 14 15 16 17 18 19 20 21 22 23
Song Science #1: How Pros Use 6 Chords to Write Hit Songs
(/) Slide Up  (\) Slide Down  (h) Hammer On  (p) Pull Off  (b) Bend (r) Release (v) Vibrato

Stave 1:

E|--15--18--17--15---------------------18--17--15-----------------18--17--15--------------------
B|--15--------------17\20--17------15--------------17\20--17--15--------------17\20--17---------
G|--15-------------------------17--------------------------------------------------------17h19--
D|----------------------------------------------------------------------------------------------
A|----------------------------------------------------------------------------------------------
E|----------------------------------------------------------------------------------------------

Stave 2:

E|-----------------------------------------------------------------------------------------------------
B|-----------------------------------------------------6-----------------------8-----------------------
G|--7--5--3--5--7--5--3--5--7--5--3--5--5--3--5--7--7-----7--5--7--8--8--8\10-----7--5--3--5--7--7-----
D|-----------------------------------------------------------------------------------------------------
A|-----------------------------------------------------------------------------------------------------
E|-----------------------------------------------------------------------------------------------------

Stave 3:

E|--------------------------------------
B|-----------------6----------------10--
G|--5--5--7--8--8-----7--7--11--11------
D|--------------------------------------
A|--------------------------------------
E|--------------------------------------

Stave 4:

E|------18--17--18--17--15------15----------------
B|--15----------------------17------17--15--------
G|------------------------------------------------
D|------------------------------------------------
A|------------------------------------------------
E|------------------------------------------------

Stave 5:

E|------18--17--18--17--15------15---------
B|--15----------------------17-------------
G|----------------------------------17\19--
D|-----------------------------------------
A|-----------------------------------------
E|-----------------------------------------

Stave 6:

E|----------------------------------------------------------------------------------------
B|--3h4p3--------------------------6-----------------------------------15--15--18--18-----
G|---------5--3--5--5--3--5--7--7-----7--7\17--19--20--19--17--17--17---------------------
D|----------------------------------------------------------------------------------------
A|----------------------------------------------------------------------------------------
E|----------------------------------------------------------------------------------------

Stave 7:

E|------------
B|------------
G|--3h5p3-----
D|------------
A|------------
E|------------

Stave 8:

E|--
B|--
G|--
D|--
A|--
E|--

http://www.guitartabcreator.com
Guitar Tab Creator is intended to store guitar tab created through the tool. It currently does not support in-line text editing. Any text you place in here will be lost. If you need to comment on your tab, please use the "Tab Notes" section located below.