Sound will begin in 5 seconds

new composition 1

Chords
01234567891011121314151617181920212223
E
B
G
D
A
E
B
0 1 2 3 4 5 6 7 8 9 10 11 12 13 14 15 16 17 18 19 20 21 22 23
Song Science #1: How Pros Use 6 Chords to Write Hit Songs
(/) Slide Up  (\) Slide Down  (h) Hammer On  (p) Pull Off  (b) Bend (r) Release (v) Vibrato

(W|WW) Whole (H|HH) Half (Q|QQ) Quarter (E|EE) 8th (S|SS) 16th (T|TT) 32nd (X|XX) 64th

Stave 1:
t: E S S S E S E S E E E E E E S S S E S E S E E E E E
D|--0-----------0-----0-----0-------------0-----------0-----0-----0-------------
A|--5-----------5-----5-----5----------5--5-----------5-----5-----5----------5--
F|--6-----------6-----6-----6-------6-----6-----------6-----6-----6-------6-----
C|--4-----------4-----4-----4--6/7--------4-----------4-----4-----4--6/7--------
G|--4--4--4--4--4--4--4--4--4-------------4--4--4--4--4--4--4--4--4-------------
C|--4--4--4--4--4--4--4--4--4-------------4--4--4--4--4--4--4--4--4-------------

Stave 2:
t: E S S S E S E S E E E E E E S S S E S E S E E E E E
D|--0-----------0-----0-----0----------5--0-----------0-----0-----0----------5--
A|--5-----------5-----5-----5-------5-----5-----------5-----5-----5-------5-----
F|--x-----------x-----x-----x--6/7--------x-----------x-----x-----x--6/7--------
C|--6-----------6-----6-----6-------------6-----------6-----6-----6-------------
G|--4--4--4--4--4--4--4--4--4-------------4--4--4--4--4--4--4--4--4-------------
C|--4--4--4--4--4--4--4--4--4-------------4--4--4--4--4--4--4--4--4-------------

Stave 3:
t: E E E E E E E E E E E E
D|--6-----------6-----6-----6--------6--6-----5-----------5-----5-----5--------5--5--
A|--7-----------7-----7-----7--------7--7-----6-----------6-----6-----6--------6--6--
F|--6-----------6-----6-----6--------6--6-----5-----------5-----5-----5--------5--5--
C|-----------------------------------------------------------------------------------
G|-----------------------------------------------------------------------------------
C|-----------------------------------------------------------------------------------

http://www.guitartabcreator.com
Guitar Tab Creator is intended to store guitar tab created through the tool. It currently does not support in-line text editing. Any text you place in here will be lost. If you need to comment on your tab, please use the "Tab Notes" section located below.