Sound will begin in 5 seconds

TTT1

Chords
01234567891011121314151617181920212223
E
B
G
D
A
E
B
0 1 2 3 4 5 6 7 8 9 10 11 12 13 14 15 16 17 18 19 20 21 22 23
Song Science #1: How Pros Use 6 Chords to Write Hit Songs
(/) Slide Up  (\) Slide Down  (h) Hammer On  (p) Pull Off  (b) Bend (r) Release (v) Vibrato

Stave 1:

Eb|---------------------------------------------------------------|---------------------------------------------------------------
Bb|---------------------------------------------------------------|---------------------------------------------------------------
F |------14--15--14-----12--14--12-----10--12--10-----------------|------14--15--14-----12--14--12-----10--12--10-----------------
C |--12-----------------------------------------------14--15--14--|--12-----------------------------------------------14--15--14--
G |---------------------------------------------------------------|---------------------------------------------------------------
C |---------------------------------------------------------------|---------------------------------------------------------------

Stave 2:

Eb|---------------------------------------------------------------|------------------------------------------------------------------|--|--
Bb|---------------------------------------------------------------|------------------------------------------------------------------|--|--
F |------14--15--14-----12--14--12-----10--12--10-----------------|------12--13--12--10--12--10--------------------------------------|--|--
C |---------------------------------------------------14--15--14--|------------------------------13--15--13--12--13--15--13--12--13--|--|--
G |--12-----------------------------------------------------------|--10--------------------------------------------------------------|--|--
C |---------------------------------------------------------------|------------------------------------------------------------------|--|--

Stave 3:

Eb|-----------------------------|----------------------------------------------------------------------------------------------------
Bb|-----------------------------|----------------------------------------------------------------------------------------------------
F |-----------------------------|----------------------------------------------------------------------------------------------------
C |--0--------12----------------|-----------------------------------5--------------------------------------8--7----------------------
G |--0--------12\---------------|--5--------8--------5--7--8-----------------7--8--7-----------------7-----------10--8--7------------
C |--0-----------------0--1--0--|-----0--0-----0--0-----------0--0-----0--0-----------0--0--7--0--0-----0------------------10--8--7--

Stave 4:

Eb|--------------------------------------------------------------------------------------------------|--|--
Bb|--------------------------------------------------------------------------------------------------|--|--
F |--------------------------------------------------------------------------------------------------|--|--
C |-----------------------------------8--------7--8--7-----------------5--7--5-----------------------|--|--
G |--5--------8--------8--7--5--------------------------------7-----------------------5--------------|--|--
C |-----0--0-----0--0-----------0--0-----0--0-----------0--0-----0--0-----------0--0-----0--0--1--0--|--|--

Stave 5:

Eb|--------------------------------------------------------------------------------------------------
Bb|--------------------------------------------------------------------------------------------------
F |--------------------------------------------------------------------------------------------------
C |--------------------------------------------7--8--7-----------------5--7--5-----------------------
G |-----------------------------------------------------------7-----------------------5--------------
C |--0-----0--0-----0--0-----0--0--0--0-----0-----------0--0-----0--0-----------0--0-----0--0--1--0--

Stave 6:

Eb|--------------------------------------------------------------------------------------------------
Bb|--------------------------------------------------------------------------------------------------
F |--------------------------------------------------------------------------------------------------
C |--------------------------------------------7--8--7-----------------5--7--5-----------------------
G |-----------------------------------------------------------7-----------------------5--------------
C |--0--0--0--0-----0--0-----0--0--0--0-----0-----------0--0-----0--0-----------0--0-----0--0--1--0--

Stave 7:

Eb|----------------------------------------------------------------------------------------
Bb|----------------------------------------------------------------------------------------
F |----------------------------------------------------------------------------------------
C |--------------------------------------------------------------8--7----------------------
G |--------------------------------------------------------------------10--8--7------------
C |--12\0--------0--0--0--0-----0--0-----0--0--0--0-----0--0---------------------10--8--7--

http://www.guitartabcreator.com
Guitar Tab Creator is intended to store guitar tab created through the tool. It currently does not support in-line text editing. Any text you place in here will be lost. If you need to comment on your tab, please use the "Tab Notes" section located below.