How Much

Chords

01234567891011121314151617181920212223
E
B
G
D
A
E
B
0 1 2 3 4 5 6 7 8 9 10 11 12 13 14 15 16 17 18 19 20 21 22 23
Stave 1:

E|------------------------------------------------------------------------------------------------
B|------------------------------------------------------------------------------------5--8--8b10--
G|-------5----------5--7b9--9r7p5--7p5-----5h7--9r7p5-----9r7p5--7--7b9--5h7p5-----5--------------
D|--5p7-----5/7--7----------------------7--------------7------------------------7-----------------
A|------------------------------------------------------------------------------------------------
E|------------------------------------------------------------------------------------------------

Stave 2:

E|-------------------------------------------------------------------
B|--8--8--6\5--5h6p5-----5-------------------------------------------
G|--------------------7-----5--5-----5--7b9--9--9--5h7p5-------------
D|--------------------------------7----------------------------5--5--
A|--------------------------------------------------------5/7--------
E|-------------------------------------------------------------------
Instruments
{"strings":[[[".",".",".",".",".",".",".",".",".",".",".",".",".",".",".",".",".",".",".",".",".",".",".",".",".",".",".",".",".",".",".",".",".",".",".",".",".",".",".",".",".",".",".",".",".",".",".",".",".",".","."],[".",".",".",".",".",".",".",".",".",".",".",".",".",".",".",".",".",".",".",".",".",".",".",".",".",".",".",".",".",".",".",".",".",".",".",".",".",".",".",".",".",".",".",".",".",".",5,8,8,"b",10],[".",".",".",5,".",".",".",".",5,7,"b",9,9,"r",7,"p",5,7,"p",5,".",5,"h",7,9,"r",7,"p",5,".",9,"r",7,"p",5,7,7,"b",9,5,"h",7,"p",5,".",5,".",".",".",".","."],[5,"p",7,".",5,"/",7,7,".",".",".",".",".",".",".",".",".",".",".",".",7,".",".",".",".",".",".",".",".",7,".",".",".",".",".",".",".",".",".",".",".",".",".",".",7,".",".",".",".",".","."],[".",".",".",".",".",".",".",".",".",".",".",".",".",".",".",".",".",".",".",".",".",".",".",".",".",".",".",".",".",".",".",".",".",".",".",".",".",".",".",".",".",".",".",".",".",".",".",".",".",".","."],[".",".",".",".",".",".",".",".",".",".",".",".",".",".",".",".",".",".",".",".",".",".",".",".",".",".",".",".",".",".",".",".",".",".",".",".",".",".",".",".",".",".",".",".",".",".",".",".",".",".","."]],[[".",".",".",".",".",".",".",".",".",".",".",".",".",".",".",".",".",".",".",".",".",".",".",".",".",".",".",".",".",".","."],[8,8,6,"\\",5,5,"h",6,"p",5,".",5,".",".",".",".",".",".",".",".",".",".",".",".",".",".",".",".",".",".","."],[".",".",".",".",".",".",".",".",".",".",7,".",5,5,".",5,7,"b",9,9,9,5,"h",7,"p",5,".",".",".",".","."],[".",".",".",".",".",".",".",".",".",".",".",".",".",".",7,".",".",".",".",".",".",".",".",".",".",".",".",".",".",5,5],[".",".",".",".",".",".",".",".",".",".",".",".",".",".",".",".",".",".",".",".",".",".",".",".",".",".",5,"/",7,".","."],[".",".",".",".",".",".",".",".",".",".",".",".",".",".",".",".",".",".",".",".",".",".",".",".",".",".",".",".",".",".","."]]],"numberofstrings":6,"notes":["E","B","G","D","A","E","B"],"capo":0,"stringnotes":["E4","B3","G3","D3","A2","E2"],"comments":["Stave 1:","Stave 2:"],"timing":[[null,null,null,null,null,null,null,null,null,null,null,null,null,null,null,null,null,null,null,null,null,null,null,null,null,null,null,null,null,null,null,null,null,null,null,null,null,null,null,null,null,null,null,null,null,null,null,null,null,null,null],["W","W","W",null,"W","W",null,"W",null,"W","W","W","W","W","W","W","W",null,"W","W","W","W",null,"W",null,"W","W",null,"W","W","W"]],"timingvisible":false,"tabcounter":31,"stave":1,"totalstaves":2,"instrument":"6guitar","selectedtuning":"6_standard","version":"13"}

Member for

1 week 5 days
Submitted by masrs.eliaxis@… on Mon, 2020-06-29 15:07