Sound will begin in 5 seconds

Out theret

01234567891011121314151617181920212223
E
B
G
D
A
E
B
0 1 2 3 4 5 6 7 8 9 10 11 12 13 14 15 16 17 18 19 20 21 22 23
Song Science #1: How Pros Use 6 Chords to Write Hit Songs
(/) Slide Up  (\) Slide Down  (h) Hammer On  (p) Pull Off  (b) Bend (r) Release (v) Vibrato

Stave 1:

Eb|--------------|--------------|--------------|--------------|--------------|--------------|-----------
Bb|--------------|--------------|--------------|--------------|--------------|--------------|-----------
Gb|--------------|--------------|--------------|--0-----------|--------------|--0-----------|-----------
Db|--------------|--0-----2-----|--------------|--------2-----|--------------|--------2-----|-----------
Ab|--------------|--------------|--------------|--------------|--------------|--------------|-----------
Eb|--0-----------|--------------|--0-----------|--------------|--0-----------|--------------|--0--------

Stave 2:

Eb|--------------|--
Bb|--------------|--
Gb|--------------|--
Db|--0-----2-----|--
Ab|--------------|--
Eb|--------------|--

Stave 3:

Eb|-----|-----|-----|-----|-----|--------------|--------------|--------------|--
Bb|-----|-----|-----|-----|-----|--------------|--------------|--------------|--
Gb|-----|--2--|--0--|-----|--2--|--0--2--------|-----0--------|--------------|--
Db|--2--|-----|-----|--4--|-----|--------------|--4-----------|--0--2--1-----|--
Ab|-----|-----|-----|-----|-----|--------------|--------------|--------------|--
Eb|-----|-----|-----|-----|-----|--------------|--------------|--------------|--

Stave 4:

Eb|-----|-----|-----|-----|-----|--------------|--------------|-----|--
Bb|-----|-----|-----|-----|-----|--------------|--------------|-----|--
Gb|-----|-----|--0--|-----|-----|--------------|--0-----------|--4--|--
Db|--2--|--4--|-----|--4--|--2--|--0--2--4--4--|-----------4--|-----|--
Ab|-----|-----|-----|-----|-----|--------------|--------------|-----|--
Eb|-----|-----|-----|-----|-----|--------------|--------------|-----|--

Stave 5:

Eb|--------------|-----------------|--------------|-----------------|--
Bb|--------------|-----------------|--------------|-----------------|--
Gb|--------0-----|-----------------|--------0--2--|--------0--0-----|--
Db|--2-----------|--0--0--2--2--0--|--2-----------|--4--4--------0--|--
Ab|--------------|-----------------|--------------|-----------------|--
Eb|--------------|-----------------|--------------|-----------------|--

Stave 6:

Eb|--------|-----------------|--------------|-----------------|--------------|-----------------|--
Bb|--------|-----------------|--------------|-----------------|--------------|-----------------|--
Gb|-----0--|-----------0--2--|--------2-----|--4--2-----0-----|--------0--2--|--------0-----0--|--
Db|--2-----|--0-----2--------|--2--------4--|-----------------|--2-----------|--0--2-----2-----|--
Ab|--------|-----------------|--------------|-----------------|--------------|-----------------|--
Eb|--------|-----------------|--------------|-----------------|--------------|-----------------|--

Stave 7:

Eb|-----------------|--------------|--
Bb|-----------------|--------------|--
Gb|--2--------0--2--|--------4-----|--
Db|-----------------|--4-----------|--
Ab|-----------------|--------------|--
Eb|-----------------|--------------|--

Stave 8:

Eb|--------------|-----------------|-----------------|-----------------------|--
Bb|--------------|-----------------|-----------------|-----------------------|--
Gb|--------0--2--|-----------------|--------0--2--4--|--------0--0-----------|--
Db|--2--2--------|--0--0--2--2--0--|--2--------------|--4--4--------------0--|--
Ab|--------------|-----------------|-----------------|--------------0--2-----|--
Eb|--------------|-----------------|-----------------|-----------------------|--

Stave 9:

Eb|--------------|-----------------|-----------------|-----------------------
Bb|--------------|-----------------|-----------------|-----------------------
Gb|--------0--2--|-----------------|--------0--2--4--|--------0--0-----------
Db|--2--2--------|--0--0--2--2--0--|--2--------------|--4--4-----------------
Ab|--------------|-----------------|-----------------|--------------0--2-----
Eb|--------------|-----------------|-----------------|--------------------3--

Stave 10:

Eb|-----|--------------|--------------|-----------------------|-----|--------------|-----------|--------
Bb|-----|--------------|--------------|-----------------------|-----|--------------|-----------|--------
Gb|-----|--------------|--------------|-----------------------|-----|--------------|-----------|--------
Db|-----|--------------|--------------|-----------------------|-----|-----------0--|-----------|--------
Ab|-----|-----------0--|--------------|-----------0--2-----0--|-----|--------------|-----------|--------
Eb|--0--|--0-----3-----|--0--------0--|--0--------------3-----|--0--|--0-----------|--0-----0--|--0--3--

Stave 11:

Eb|--
Bb|--
Gb|--
Db|--
Ab|--
Eb|--

http://www.guitartabcreator.com
Guitar Tab Creator is intended to store guitar tab created through the tool. It currently does not support in-line text editing. Any text you place in here will be lost. If you need to comment on your tab, please use the "Tab Notes" section located below.