Sound will begin in 5 seconds

Buried Alive

01234567891011121314151617181920212223
E
B
G
D
A
E
B
0 1 2 3 4 5 6 7 8 9 10 11 12 13 14 15 16 17 18 19 20 21 22 23
Song Science #1: How Pros Use 6 Chords to Write Hit Songs
(/) Slide Up  (\) Slide Down  (h) Hammer On  (p) Pull Off  (b) Bend (r) Release (v) Vibrato

Stave 1:

E|------8------10p8------8--------7--------------------------------------------0--------------------------8------10p8------8-----7---------------
B|--10-----10--------10--------8-----8--10--8/10-----5-----6p5-----5--------------0-------0-----0-----10-----10--------10-----8-----8--10--8/10--
G|------------------------------------------------7-----7-------7-----------5--------7/5-----5-----0---------------------------------------------
D|-----------------------------------------------------------------------------------------------------------------------------------------------
A|--------------------------------------------------------------------3--2-----------------------------------------------------------------------
E|--------------------------8--------------------------------------------------------------------------------------------------------------------

Stave 2:

E|-------------------------------------------------------------------------------------------------------------------------------------------
B|-----5-----6p5-----5--6--8--10--9h10p9p7--9--10--10--8--10--------------------10--8--10-------------10--8--10--------------------7--8--10--
G|--7-----7-------7-------------------------------------------7--5--7--5-------------------7--5h7--5-------------7--5--7--5------------------
D|------------------------------------------------------------------------7--5-----------------------------------------------7--5------------
A|-------------------------------------------------------------------------------------------------------------------------------------------
E|-------------------------------------------------------------------------------------------------------------------------------------------

Stave 3:

E|--------------------------------------------------------------------------------------------------------------------------------
B|--5--------5--------10--8--10--------------------10--8--10-------------10--8--10--------------------7--8--10--5--------5--------
G|-----5--------5----------------7--5--7--5-------------------7--5h7--5-------------7--5--7--5---------------------5--------5-----
D|--------5--------5-------------------------7--5-----------------------------------------------7--5------------------5--------5--
A|--------------------------------------------------------------------------------------------------------------------------------
E|--------------------------------------------------------------------------------------------------------------------------------

Stave 4:

E|----------------------------------
B|--------5--5-------------5--5-----
G|--5--4--------2/5--5--4--------2--
D|----------------------------------
A|----------------------------------
E|----------------------------------

http://www.guitartabcreator.com
Guitar Tab Creator is intended to store guitar tab created through the tool. It currently does not support in-line text editing. Any text you place in here will be lost. If you need to comment on your tab, please use the "Tab Notes" section located below.