Sound will begin in 5 seconds

Xylophonemes

01234567891011121314151617181920212223
E
B
G
D
A
E
B
0 1 2 3 4 5 6 7 8 9 10 11 12 13 14 15 16 17 18 19 20 21 22 23
Song Science #1: How Pros Use 6 Chords to Write Hit Songs
(/) Slide Up  (\) Slide Down  (h) Hammer On  (p) Pull Off  (b) Bend (r) Release (v) Vibrato

Stave 1:

D|------------------------------
A|---------7-------------7------
F|-----10-----10-----10-----10--
C|--8-------------9-------------
G|------------------------------
D|------------------------------

Stave 2:

D|---------------------------------------
A|---------------------------------------
F|----------8----------------11--12--11--
C|--8h6------------------12--------------
G|-------7-----7-----10------------------
D|---------------------------------------

Stave 3:

D|------------------------------------------------------------------------------------
A|------------------------------------------------------------------------------------
F|----------8-------------8-------------8----------------8--8-------------8-----------
C|--8p6-----------8p6--------8p6-----------8--8--8p6--------------8p6-----------------
G|-------7-------------7----------7-------------------7----------------7-----6--4-----
D|------------------------------------------------------------------------------------

Stave 4:

D|--------------------------------------------------------------------------------------------------
A|--------------------------------------------------------------------15--15--15-----15--15--15-----
F|--15--15--15-----15--15--15--------13--13--13-----13--13--13--------------------------------------
C|--------------------------------------------------------------------------------------------------
G|--------------------------------------------------------------------------------------------------
D|--------------------------------------------------------------------------------------------------

Stave 5:

D|---------------------18------
A|--18--18--18-----17----------
F|-------------------------15--
C|-----------------------------
G|-----------------------------
D|-----------------------------

http://www.guitartabcreator.com
Guitar Tab Creator is intended to store guitar tab created through the tool. It currently does not support in-line text editing. Any text you place in here will be lost. If you need to comment on your tab, please use the "Tab Notes" section located below.