Sound will begin in 5 seconds

Tepid Genghis

01234567891011121314151617181920212223
E
B
G
D
A
E
B
0 1 2 3 4 5 6 7 8 9 10 11 12 13 14 15 16 17 18 19 20 21 22 23
Song Science #1: How Pros Use 6 Chords to Write Hit Songs
(/) Slide Up  (\) Slide Down  (h) Hammer On  (p) Pull Off  (b) Bend (r) Release (v) Vibrato

Stave 1:

D|--------------------------------------
A|--------------------------------------
F|--------------------------------------
C|--5p4---------------------------------
G|-------7--6--6--6----------------1h2--
D|----------------------2--2--2h3-------

Stave 2:

D|--------------------------------------
A|--------------------------------------
F|--------------------------------------
C|-----1-----1-----------1--------------
G|--------------------------------------
D|--2-----2-----2-----2-----2--3--3--3--

Stave 3:

D|-------------------------------------------------------
A|-------------------------------------------9-----------
F|-------7h8--8-------7h8--8-----11p8--8--8-----8--8--8--
C|--5h8----------5h8-------------------------------------
G|-------------------------------------------------------
D|-------------------------------------------------------

Stave 4:

D|----------------------------6--9--7--
A|--7p6----------7p6-------------------
F|-------8p7--7-------8p7--7-----------
C|-------------------------------------
G|-------------------------------------
D|-------------------------------------

Stave 5:

D|--------------------------------------------------------------------
A|-----------------------------------7p6------------------------------
F|-----8-----8-----------8-----8----------8p7-------------------------
C|--------------------------------------------------------7-----------
G|--9-----9-----9-----8-----8-----8------------9p6--6--6-----6--6--6--
D|--------------------------------------------------------------------

Stave 6:

D|----------------------------------------
A|----------------------------------------
F|-----8-----8-----8------10------10------
C|----------------------------------------
G|--9-----9-----9-----11------11------11--
D|----------------------------------------

Stave 7:

D|--------------------------------------------------------------------------------------------------------
A|--------------------------------------------------------------------------------------------------------
F|----------------9--9--9----------------9--9--9------------------11--11--11------------------11--11--11--
C|-------------9----------------------9-----------------------11--------------------------11--------------
G|--------7h8--------------------7h8--------------------9h10------------------------9h10------------------
D|--6--3-------------------6--3-------------------3--0------------------------3--0------------------------

Stave 8:

D|-----------------------------------------------------------------
A|--------7-----------------7-----------------2-----------------3--
F|-----8-----8-----8-----8-----8-----------3-----3-----3-----3-----
C|-----------------------------------------------------------------
G|--9-----------9-----8-----------8-----6-----------6-----5--------
D|-----------------------------------------------------------------

http://www.guitartabcreator.com
Guitar Tab Creator is intended to store guitar tab created through the tool. It currently does not support in-line text editing. Any text you place in here will be lost. If you need to comment on your tab, please use the "Tab Notes" section located below.