the gates

01234567891011121314151617181920212223
E
B
G
D
A
E
B
0 1 2 3 4 5 6 7 8 9 10 11 12 13 14 15 16 17 18 19 20 21 22 23
(/) Slide Up  (\) Slide Down  (h) Hammer On  (p) Pull Off  (b) Bend (r) Release (v) Vibrato

Stave 1:

D|-----------------------------------------------------------------------------
A|-----------------------------------------------------------------------------
F|--11--12--9--11v--16--11--12--9--11--11--12--9--11--16--11--12--9--11--------
C|--9---9---9--9--------9---9---9--9---9---9---9--9-------9---9---9--9---------
G|-----------------------------------------------------------------------5--4--
D|-----------------------------------------------------------------------3--2--

Stave 2:

D|-----------------------------------------------
A|-----------------------------------------------
F|-----------------------------------------------
C|-----------------------------------------5--4--
G|--4--4--4--4--4--5--4--4--4--4--4--5--2--------
D|--2--2--2--2--2--3--2--2--2--2--2--------------

Stave 3:

D|--------------------------------------------------------
A|--------------------------------------------------------
F|--------------------------------------------------------
C|--------------------------------------------------------
G|--------------------------------------------------------
D|--12--5--11--5--9--5--12--4--11--4--9--4--12--2--11--2--

Stave 4:

D|--------------------------------------------------------------------------------------------------------------------------------------------------
A|--------------------------------------------------------------------------------------------------------------------------------------------------
F|--------------------------------------------------------------------------------------------------------------------------------------------------
C|--5--------5--------5--------5--------------------------------------------5--------5--------5--------5--------------------------------------------
G|-----4--------4--------4--------4-----5--------5--------5--------5-----------4--------4--------4--------4-----5--------5--------5--------5--------
D|--------2--------2--------2--------2-----3--2-----3--2-----3--2-----3--2--------2--------2--------2--------2-----3--2-----3--2-----3--2-----3--2--

Stave 5:

D|--------------------------------------------------------------------------------------------
A|--------------------------------------------------------------------------------------------
F|--------------------------------------------------------------------------------------------
C|--------------------------------------------------------------------------------------------
G|-----------4--4--4-----------5--5--5-----------4--4--4-----4--4--4-----5--5--5-----4--4--4--
D|--2--2--2-----------2--2--2-----------2--2--2-----------3-----------3-----------3-----------

Stave 6:

D|--------------------------------------------------------------------------------------------------------------------------------------------
A|--------------------------------------------------------------------------------------------------------------------------------------------
F|-----------11--11--11-----------12--12--12-----------9--9--9--11--11--11-----------11--11--11-----------12--12--12--------------------------
C|--------------------------------------------------------------------------------------------------------------------12--12--12--11--11--11--
G|--9--9--9--------------9--9--9--------------9--9--9-----------------------9--9--9--------------9--9--9--------------------------------------
D|--------------------------------------------------------------------------------------------------------------------------------------------

Stave 7:

D|---------------------------------------------------------------------
A|---------------------------------------------------------------------
F|---------------------------------------------------------------------
C|--12------11---------------------------------------------------------
G|--10--12--9---11-----------------------------------------------------
D|------10------9---3--3--3--3--3--3--3--3--3--2--2--2--2--2--2--2--2--

							http://www.guitartabcreator.com
Chords

Instruments
{"strings":[[[".",".",".",".",".",".",".",".",".",".",".",".",".",".",".",".",".",".",".",".","."],[".",".",".",".",".",".",".",".",".",".",".",".",".",".",".",".",".",".",".",".","."],[11,12,9,11,"v",16,11,12,9,11,11,12,9,11,16,11,12,9,11,".","."],[9,9,9,9,".",".",9,9,9,9,9,9,9,9,".",9,9,9,9,".","."],[".",".",".",".",".",".",".",".",".",".",".",".",".",".",".",".",".",".",".",5,4],[".",".",".",".",".",".",".",".",".",".",".",".",".",".",".",".",".",".",".",3,2]],[[".",".",".",".",".",".",".",".",".",".",".",".",".",".","."],[".",".",".",".",".",".",".",".",".",".",".",".",".",".","."],[".",".",".",".",".",".",".",".",".",".",".",".",".",".","."],[".",".",".",".",".",".",".",".",".",".",".",".",".",5,4],[4,4,4,4,4,5,4,4,4,4,4,5,2,".","."],[2,2,2,2,2,3,2,2,2,2,2,".",".",".","."]],[[".",".",".",".",".",".",".",".",".",".",".",".",".",".",".","."],[".",".",".",".",".",".",".",".",".",".",".",".",".",".",".","."],[".",".",".",".",".",".",".",".",".",".",".",".",".",".",".","."],[".",".",".",".",".",".",".",".",".",".",".",".",".",".",".","."],[".",".",".",".",".",".",".",".",".",".",".",".",".",".",".","."],[12,5,11,5,9,5,12,4,11,4,9,4,12,2,11,2]],[[".",".",".",".",".",".",".",".",".",".",".",".",".",".",".",".",".",".",".",".",".",".",".",".",".",".",".",".",".",".",".",".",".",".",".",".",".",".",".",".",".",".",".",".",".",".",".","."],[".",".",".",".",".",".",".",".",".",".",".",".",".",".",".",".",".",".",".",".",".",".",".",".",".",".",".",".",".",".",".",".",".",".",".",".",".",".",".",".",".",".",".",".",".",".",".","."],[".",".",".",".",".",".",".",".",".",".",".",".",".",".",".",".",".",".",".",".",".",".",".",".",".",".",".",".",".",".",".",".",".",".",".",".",".",".",".",".",".",".",".",".",".",".",".","."],[5,".",".",5,".",".",5,".",".",5,".",".",".",".",".",".",".",".",".",".",".",".",".",".",5,".",".",5,".",".",5,".",".",5,".",".",".",".",".",".",".",".",".",".",".",".",".","."],[".",4,".",".",4,".",".",4,".",".",4,".",5,".",".",5,".",".",5,".",".",5,".",".",".",4,".",".",4,".",".",4,".",".",4,".",5,".",".",5,".",".",5,".",".",5,".","."],[".",".",2,".",".",2,".",".",2,".",".",2,".",3,2,".",3,2,".",3,2,".",3,2,".",".",2,".",".",2,".",".",2,".",".",2,".",3,2,".",3,2,".",3,2,".",3,2]],[[".",".",".",".",".",".",".",".",".",".",".",".",".",".",".",".",".",".",".",".",".",".",".",".",".",".",".",".",".","."],[".",".",".",".",".",".",".",".",".",".",".",".",".",".",".",".",".",".",".",".",".",".",".",".",".",".",".",".",".","."],[".",".",".",".",".",".",".",".",".",".",".",".",".",".",".",".",".",".",".",".",".",".",".",".",".",".",".",".",".","."],[".",".",".",".",".",".",".",".",".",".",".",".",".",".",".",".",".",".",".",".",".",".",".",".",".",".",".",".",".","."],[".",".",".",4,4,4,".",".",".",5,5,5,".",".",".",4,4,4,".",4,4,4,".",5,5,5,".",4,4,4],[2,2,2,".",".",".",2,2,2,".",".",".",2,2,2,".",".",".",3,".",".",".",3,".",".",".",3,".",".","."]],[[".",".",".",".",".",".",".",".",".",".",".",".",".",".",".",".",".",".",".",".",".",".",".",".",".",".",".",".",".",".",".",".",".",".",".",".",".",".","."],[".",".",".",".",".",".",".",".",".",".",".",".",".",".",".",".",".",".",".",".",".",".",".",".",".",".",".",".",".",".",".",".",".",".",".",".",".",".","."],[".",".",".",11,11,11,".",".",".",12,12,12,".",".",".",9,9,9,11,11,11,".",".",".",11,11,11,".",".",".",12,12,12,".",".",".",".",".","."],[".",".",".",".",".",".",".",".",".",".",".",".",".",".",".",".",".",".",".",".",".",".",".",".",".",".",".",".",".",".",".",".",".",12,12,12,11,11,11],[9,9,9,".",".",".",9,9,9,".",".",".",9,9,9,".",".",".",".",".",".",9,9,9,".",".",".",9,9,9,".",".",".",".",".",".",".",".","."],[".",".",".",".",".",".",".",".",".",".",".",".",".",".",".",".",".",".",".",".",".",".",".",".",".",".",".",".",".",".",".",".",".",".",".",".",".",".","."]],[[".",".",".",".",".",".",".",".",".",".",".",".",".",".",".",".",".",".",".",".","."],[".",".",".",".",".",".",".",".",".",".",".",".",".",".",".",".",".",".",".",".","."],[".",".",".",".",".",".",".",".",".",".",".",".",".",".",".",".",".",".",".",".","."],[12,".",11,".",".",".",".",".",".",".",".",".",".",".",".",".",".",".",".",".","."],[10,12,9,11,".",".",".",".",".",".",".",".",".",".",".",".",".",".",".",".","."],[".",10,".",9,3,3,3,3,3,3,3,3,3,2,2,2,2,2,2,2,2]]],"numberofstrings":6,"notes":["D","A","F","C","G","D"],"capo":0,"stringnotes":["D3","A2","F2","C2","G1","D1"],"comments":["Stave 1:","Stave 2:","Stave 3:","Stave 4:","Stave 5:","Stave 6:","Stave 7:"],"timing":[[null,null,null,null,null,null,null,null,null,null,null,null,null,null,null,null,null,null,null,null,null],[null,null,null,null,null,null,null,null,null,null,null,null,null,null,null],[null,null,null,null,null,null,null,null,null,null,null,null,null,null,null,null],["W","W","W","W","W","W","W","W","W","W","W","W","W","W","W","W","W","W","W","W","W","W","W","W","W","W","W","W","W","W","W","W","W","W","W","W","W","W","W","W","W","W","W","W","W","W","W","W"],["W","W","W","W","W","W","W","W","W","W","W","W","W","W","W","W","W","W","W","W","W","W","W","W","W","W","W","W","W","W"],["W","W","W","W","W","W","W","W","W","W","W","W","W","W","W","W","W","W","W","W","W","W","W","W","W","W","W","W","W","W","W","W","W","W","W","W","W","W","W"],["W","W","W","W","W","W","W","W","W","W","W","W","W","W","W","W","W","W","W","W","W"]],"timingvisible":false,"tabcounter":21,"stave":6,"totalstaves":7,"instrument":"6guitar","selectedtuning":"Full Step Down","version":"13"}

Member for

4 months 3 weeks
Submitted by masckamics on Mon, 2021-07-05 13:52