Sound will begin in 5 seconds

FAIL TO FUNCTION JACK

Chords
01234567891011121314151617181920212223
E
B
G
D
A
E
B
0 1 2 3 4 5 6 7 8 9 10 11 12 13 14 15 16 17 18 19 20 21 22 23
(/) Slide Up  (\) Slide Down  (h) Hammer On  (p) Pull Off  (b) Bend (r) Release (v) Vibrato

Stave 1:

E|--------4-----------4-----------4-----------4-----
B|-----6-----6-----6-----6-----6-----6-----6-----6--
G|--3-----------3-----------3-----------3-----------
D|--------------------------------------------------
A|--------------------------------------------------
E|--------------------------------------------------

Stave 2:

E|--------------
B|--------------
G|--10--13--15--
D|--------------
A|--8---11--13--
E|--------------

Stave 3:

E|----------------------------------
B|--18------18------18------18------
G|------18------18------18------18--
D|----------------------------------
A|----------------------------------
E|----------------------------------

Stave 4:

E|--------------------------
B|--18--14--16--13--14------
G|----------------------15--
D|--------------------------
A|--------------------------
E|--------------------------

Stave 5:

E|--16------16------16------16------16------16------16------16------13------13------13------13------
B|------18------18------18------18------16------16------16------16------14------14------14------14--
G|--------------------------------------------------------------------------------------------------
D|--------------------------------------------------------------------------------------------------
A|--------------------------------------------------------------------------------------------------
E|--------------------------------------------------------------------------------------------------

http://www.guitartabcreator.com
Guitar Tab Creator is intended to store guitar tab created through the tool. It currently does not support in-line text editing. Any text you place in here will be lost. If you need to comment on your tab, please use the "Tab Notes" section located below.