Sound will begin in 5 seconds

Tabs For Band

01234567891011121314151617181920212223
E
B
G
D
A
E
B
0 1 2 3 4 5 6 7 8 9 10 11 12 13 14 15 16 17 18 19 20 21 22 23
Song Science #1: How Pros Use 6 Chords to Write Hit Songs
(/) Slide Up  (\) Slide Down  (h) Hammer On  (p) Pull Off  (b) Bend (r) Release (v) Vibrato

Stave 1:

E|----------------------------------------------------
B|----------------------------------------------------
G|--7--7---------------------7--7---------------------
D|--------7--7--9--9---------------7--7--9--9--10--9--
A|--------------------10--9---------------------------
E|----------------------------------------------------

Stave 2:

E|--------------------------------------------------
B|--------------------------------------------------
G|--------------------------------------------------
D|-----------5-----------------------5--------------
A|-----7--------4--4--4--5-----7--------4--4--4--5--
E|--0-----3-----------------0-----3-----------------

Stave 3:

E|---------------------
B|---------------------
G|---------------------
D|-----6-----8-----11--
A|---------------------
E|--3-----6-----8------

Stave 4:

E|---------------------------------------------------------
B|---------------------------------------------------------
G|---------------------------------------------------------
D|-----6-----8-----------------11--11-----------11--11-----
A|---------------------------------------------------------
E|--3-----6-----8--8--8--8--8----------8--8--8----------8--

Stave 5:

E|-----------------------------------------------------------------------------
B|-----------------------------------------------------------------------------
G|-----------4--4--------------------2--------------------4--4-----------------
D|-----------------5--5--4--------------4--4--5-----------------5--5--4--------
A|-----------------------------------------------------------------------------
E|--2--2--2-----------------5--5--5--------------2--2--2-----------------5--7--

Stave 6:

E|--------------------------------------------------------------------------------------------------
B|--------------------------------------------------------------------------------------------------
G|--------------------------------------------------------------------------------------------------
D|--------------------------------------------------------------------------------------------------
A|--------------------------------------------------------------------------------------------------
E|--2--2--2--2--2--2--2--2--0--0--0--0--0--0--0--0--2--2--2--2--2--2--2--2--5--5--5--5--7--7--7--7--

http://www.guitartabcreator.com
Guitar Tab Creator is intended to store guitar tab created through the tool. It currently does not support in-line text editing. Any text you place in here will be lost. If you need to comment on your tab, please use the "Tab Notes" section located below.