Led Zeppelin - Going to California (Carl Brown Version)

Chords

01234567891011121314151617181920212223
E
B
G
D
A
E
B
0 1 2 3 4 5 6 7 8 9 10 11 12 13 14 15 16 17 18 19 20 21 22 23
(/) Slide Up  (\) Slide Down  (h) Hammer On  (p) Pull Off  (b) Bend (r) Release (v) Vibrato

Intro: Repeat 4 times then Into Verse ( or play 3 times and add on Intro 2 )

D|-----0-----------0-----------0-----------0-----
B|-----------3-----------------------3-----------
G|-----------------------------------------------
D|--------0-----------0-----------0-----------0--
A|-----------------------------------------------
D|--0-----------0-----------0-----------0--------

Intro 2 then to verse

D|-----7-----7-----7-----7-----7-----7-----7--
B|--7-----8-----7-----------------------7-----
G|--------------------9-----7-----9-----------
D|--------------------------------------------
A|--------------------------------------------
D|--------------------------------------------

Verse (i) x2 then onto Verse (ii)

D|--5--------4-----------0-----------0-----
B|-----0-----------5-----------5-----------
G|--------0-----------0-----------0--------
D|-----------------------------------------
A|-----------------------------------------
D|--5-----------5-----------0--------------

Verse (ii) Then repeat from (i) x 3  before moving on to play (iii)

D|----------------0-----7-----------7-----------7--------5--------5-----------0-----------0--------
B|--5/7-----5-----------------5-----------5-----------5-----7-----------7-----------5--------------
G|----------------------------------------------------------------------------------------------7--
D|-------0-----------0-----------0-----------0-----------------0-----------0-----------0-----------
A|-------------------------------------------------------------------------------------------------
D|--0----------0-----------0-----------0-----------0-----0-----------0-----------0-----------0-----

Verse (iii)

D|--3--------3-----------3--------2-----------0--4---------------5-----------
B|-----5-----------5--------3-----------3--------3---------------------7-----
G|--------5--------------------0-----------0--------------6h7p6--------------
D|--------------------0--------------------------0-----0------0-----------0--
A|-----------------------2-----------2---------------------------------------
D|--0-----------0-----------------------------------0-----0---------0--------

Verse (iii) cont... Then play everything again from the verse then to bridge

D|--0--------0--------------------0-----------
B|-----3-----------3--------3-----------3-----
G|--------------------------------------------
D|--------0-----------0--------0-----------0--
A|--------------------------------------------
D|--0-----------0--------0-----------0--------

Bridge pt 1 Repeat 3 times before pt2

D|--7--------5-----------7--
B|-----6-----------6--------
G|--------7-----------7-----
D|--------------------------
A|--------------------------
D|--0-----------0-----------

Bridge pt 2 play 4 times then Play pt 3

D|-----------0--
B|-----0--------
G|--------6-----
D|--------------
A|--0-----------
D|--------------

Bridge pt3 play twice then back to verse

D|-----------0-----------0--
B|-----0-----------0--------
G|--------6-----------6-----
D|--------------5-----------
A|--0-----------------------
D|--------------------------

Outro repeat to fade

D|-----------2-----
B|--3--------------
G|-----2-----------
D|--------0--------
A|-----------------
D|--0-----------0--

							http://www.guitartabcreator.com
Tab Notes
Okay so this is my first tab so prob one or two mistakes. Let me know and I'll edit it. Double drop D tuning
genre
Instruments
{"strings":[[[".",0,".",".",".",0,".","_",".",0,".",".",".",0,"."],[".",".",".",3,".",".",".","_",".",".",".",3,".",".","."],[".",".",".",".",".",".",".","_",".",".",".",".",".",".","."],[".",".",0,".",".",".",0,"_",".",".",0,".",".",".",0],[".",".",".",".",".",".",".","_",".",".",".",".",".",".","."],[0,".",".",".",0,".",".","_",0,".",".",".",0,".","."]],[[".",7,".",7,".",7,".",7,".",7,".",7,".",7],[7,".",8,".",7,".",".",".",".",".",".",".",7,"."],[".",".",".",".",".",".",9,".",7,".",9,".",".","."],[".",".",".",".",".",".",".",".",".",".",".",".",".","."],[".",".",".",".",".",".",".",".",".",".",".",".",".","."],[".",".",".",".",".",".",".",".",".",".",".",".",".","."]],[[5,".",".",4,".",".",".",0,".",".",".",0,"_"],[".",0,".",".",".",5,".",".",".",5,".",".","_"],[".",".",0,".",".",".",0,".",".",".",0,".","_"],[".",".",".",".",".",".",".",".",".",".",".",".","_"],[".",".",".",".",".",".",".",".",".",".",".",".","_"],[5,".",".",".",5,".",".",".",0,".",".",".","_"]],[[".",".",".",".",".",".",0,".",7,".",".",".",7,".",".",".",7,".",".",5,".",".",5,".",".",".",0,".",".",".",0,".","."],[5,"/",7,".",5,".",".",".",".",".",5,".",".",".",5,".",".",".",5,".",7,".",".",".",7,".",".",".",5,".",".",".","."],[".",".",".",".",".",".",".",".",".",".",".",".",".",".",".",".",".",".",".",".",".",".",".",".",".",".",".",".",".",".",".",".",7],[".",".",".",0,".",".",".",0,".",".",".",0,".",".",".",0,".",".",".",".",".",0,".",".",".",0,".",".",".",0,".",".","."],[".",".",".",".",".",".",".",".",".",".",".",".",".",".",".",".",".",".",".",".",".",".",".",".",".",".",".",".",".",".",".",".","."],[0,".",".",".",".",0,".",".",".",0,".",".",".",0,".",".",".",0,".",0,".",".",".",0,".",".",".",0,".",".",".",0,"."]],[[3,".",".",3,".",".",".",3,".",".",2,".",".",".",0,4,".",".",".",".",".",".",".",5,".",".","."],[".",5,".",".",".",5,".",".",3,".",".",".",3,".",".",3,".",".",".",".",".",".",".",".",".",7,"."],[".",".",5,".",".",".",".",".",".",0,".",".",".",0,".",".",".",".",6,"h",7,"p",6,".",".",".","."],[".",".",".",".",".",".",0,".",".",".",".",".",".",".",".",0,".",0,".",".",".",".",0,".",".",".",0],[".",".",".",".",".",".",".",2,".",".",".",2,".",".",".",".",".",".",".",".",".",".",".",".",".",".","."],[0,".",".",".",0,".",".",".",".",".",".",".",".",".",".",".",0,".",0,".",".",".",".",".",0,".","."]],[[0,".",".",0,".",".",".",".",".",".",0,".",".","."],[".",3,".",".",".",3,".",".",3,".",".",".",3,"."],[".",".",".",".",".",".",".",".",".",".",".",".",".","."],[".",".",0,".",".",".",0,".",".",0,".",".",".",0],[".",".",".",".",".",".",".",".",".",".",".",".",".","."],[0,".",".",".",0,".",".",0,".",".",".",0,".","."]],[[7,".",".",5,".",".",".",7],[".",6,".",".",".",6,".","."],[".",".",7,".",".",".",7,"."],[".",".",".",".",".",".",".","."],[".",".",".",".",".",".",".","."],[0,".",".",".",0,".",".","."]],[[".",".",".",0],[".",0,".","."],[".",".",6,"."],[".",".",".","."],[0,".",".","."],[".",".",".","."]],[[".",".",".",0,".",".",".",0],[".",0,".",".",".",0,".","."],[".",".",6,".",".",".",6,"."],[".",".",".",".",5,".",".","."],[0,".",".",".",".",".",".","."],[".",".",".",".",".",".",".","."]],[[".",".",".",2,"."],[3,".",".",".","."],[".",2,".",".","."],[".",".",0,".","."],[".",".",".",".","."],[0,".",".",".",0]]],"numberofstrings":6,"notes":["D","B","G","D","A","D"],"capo":0,"stringnotes":["D3","B2","G2","D2","A1","D1"],"comments":["Intro: Repeat 4 times then Into Verse ( or play 3 times and add on Intro 2 )","Intro 2 then to verse","Verse (i) x2 then onto Verse (ii)","Verse (ii) Then repeat from (i) x 3 before moving on to play (iii)","Verse (iii)","Verse (iii) cont... Then play everything again from the verse then to bridge","Bridge pt 1 Repeat 3 times before pt2","Bridge pt 2 play 4 times then Play pt 3","Bridge pt3 play twice then back to verse","Outro repeat to fade"],"timing":[["W","W","W","W","W","W","W",null,"W","W","W","W","W","W","W"],["W","W","W","W","W","W","W","W","W","W","W","W","W","W"],["W","W","W","W","W","W","W","W","W","W","W","W",null,null,null,null,null,null,null,null,null,null,null,null,null,null,null,null,null,null,null,null,null,"W"],["W",null,"W","W","W","W","W","W","W","W","W","W","W","W","W","W","W","W","W","W","W","W","W","W","W","W","W","W","W","W","W","W","W"],["W","W","W","W","W","W","W","W","W","W","W","W","W","W","W","W","W","W","W",null,"W",null,"W","W","W","W","W"],["W","W","W","W","W","W","W","W","W","W","W","W","W","W","W","W","W","W","W","W"],["W","W","W","W","W","W","W","W",null,"W","W"],["W","W","W","W","W","W","W","W"],["W","W","W","W","W","W","W","W"],["W","W","W","W","W","W","W","W"]],"timingvisible":false,"tabcounter":5,"stave":9,"totalstaves":10,"instrument":"6guitar","selectedtuning":"Double Drop D","version":"13"}

Member for

1 day 3 hours
About Me
Hi Folks. Learned a few campfire songs when I was younger and haven't played in years. I have been forced to self isolate so I have started to learn my guitar again. I always wanted to learn "Going to California" by the great Led Zep, but I either found it too hard, or couldn't get a tab version that sounded right. Anyway, I found a version on YouTube (which i will credit on the tab) that could actually play that sounded good, but I was too rusty to pick it up from just watching the vid so I jotted down my own tab and found this place to make a proper version from my notes. See ya 'round!
Submitted by Marty Clarke on Thu, 2020-10-15 09:11