Sound will begin in 5 seconds

Romantic Flight - John Powell

01234567891011121314151617181920212223
E
B
G
D
A
E
B
0 1 2 3 4 5 6 7 8 9 10 11 12 13 14 15 16 17 18 19 20 21 22 23
Song Science #1: How Pros Use 6 Chords to Write Hit Songs
(/) Slide Up  (\) Slide Down  (h) Hammer On  (p) Pull Off  (b) Bend (r) Release (v) Vibrato

Stave 1:

E|-----------------------|-------------------|-----------------------
B|---------7-------------|-------------------|-----------------------
G|---6-9-8---8--6---8----|-------------6-8-6-|-----------------------
D|-9--------------9------|---6-8-9-8-9-------|---6-9-6---------------
A|--------------------9--|-9-----------------|-9-------9-6-----9-6---
E|-----------------------|-------------------|-------------7-9-----9-

Stave 2:

E|----------------------|-------------------9v-11-9-|-----------------------------|-
B|---------7------------|----9-11-12v-11-12h--------|----9-12-9-------------------|-
G|---6-9-8---8--6---8---|-11------------------------|-11--------11-8------11-9----|-
D|-9--------------9-----|---------------------------|----------------9-11------11-|-
A|--------------------9-|---------------------------|-----------------------------|-
E|----------------------|---------------------------|-----------------------------|-

Stave 3:

E|------------------
B|------------------
G|-------11-13------
D|------------------
A|-9-11---------6-7-
E|------------------

Stave 4:

E|-------------------------------------------------------------------------
B|----------------11-------------------------------------------------------
G|-13----13----13----12----12----12-13-10----10----10----------------------
D|----13----13----------13----13----------13----13----13-13-11-11-10-------
A|-------------------------------------------------------------------13-11-
E|-------------------------------------------------------------------------

Stave 5:

E|-------------------------------------------------------------------------
B|----------------11-------------------------------------------------------
G|-13----13----13----12----12----12-13-10----10----10----------------------
D|----13----13----------13----13----------13----13----13-13-11-11-10-------
A|-------------------------------------------------------------------13-11-
E|-------------------------------------------------------------------------

Stave 6:

E|---------------------------------------------------------
B|---------------------------------------------------------
G|---------------------------------------------------------
D|-8-------------8-------------8-------------8-------------
A|---11-11-9-9-----11-11-9-9-----11-11-9-9-----11-11-9-9---
E|-------------9-------------9-------------9-------------9-

http://www.guitartabcreator.com
Guitar Tab Creator is intended to store guitar tab created through the tool. It currently does not support in-line text editing. Any text you place in here will be lost. If you need to comment on your tab, please use the "Tab Notes" section located below.