Sound will begin in 5 seconds

andy-james-series-eight-string-skipping-sequence-ideas

01234567891011121314151617181920212223
E
B
G
D
A
E
B
0 1 2 3 4 5 6 7 8 9 10 11 12 13 14 15 16 17 18 19 20 21 22 23
Song Science #1: How Pros Use 6 Chords to Write Hit Songs
(/) Slide Up  (\) Slide Down  (h) Hammer On  (p) Pull Off  (b) Bend (r) Release (v) Vibrato

Stave 1:

E|--17-----12-------------|--12h15p12-----------------------12--
B|------------------------|-------------------------------------
G|-------------16--12p16--|------------16p12---------12h16------
D|------------------------|-------------------14p12-------------
A|------------------------|-------------------------------------
E|------------------------|-------------------------------------

Stave 2:

E|--17--12--------------12--15--12------------------------------
B|----------------------------------------------12--17--12------
G|----------15--12--15--------------15--12--15--------------15--
D|--------------------------------------------------------------
A|--------------------------------------------------------------
E|--------------------------------------------------------------

Stave 3:

E|--------------10------10--14--10--------------
B|----------------------------------------------
G|------11--14------14--------------14--11------
D|--12--------------------------------------12--
A|----------------------------------------------
E|----------------------------------------------

Stave 4:

E|----------------------------------------------
B|------------------10------14--10------10------
G|----------------------------------------------
D|----------11--14------14----------14------11--
A|--12--12--------------------------------------
E|----------------------------------------------

Stave 5:

E|--------------12----------15--12--------------
B|----------------------------------------------
G|------12--16------16--12----------16--16--12--
D|--14------------------------------------------
A|----------------------------------------------
E|----------------------------------------------

http://www.guitartabcreator.com
Guitar Tab Creator is intended to store guitar tab created through the tool. It currently does not support in-line text editing. Any text you place in here will be lost. If you need to comment on your tab, please use the "Tab Notes" section located below.